» » »

Family Man Bass tabs (ver.1)

Artists:  A B C D E F G H I J K L M N O P Q R S T U V W X Y Z # 

Family Man Bass tabs (ver.1)

Hall And Oates
Rating:
1/5 (1 vote)

Tabs too difficult? Try these video lessons and learn fast.
                
Figure the repitions and where to stick each part on your own, it'll be fun. :)
apparently some notes weren't  audible there compared to the official recording. Meh.

G------------------------------------|
D------------------------------------|
A-1--1------1--1---3-3h5--5--------5-|
D------3--3------3----------7-7--7---|

G------------|
D------------|
A---------55-|
D--7-7--7----|

G-----------------------------------------|
D-----------------------------------------|
A---------------------------------3-3-5-5-|
D-0--0-0--00--0-0--00--0-0--00--0---------|

G-----------------------------------------|
D-----------------------------------------|
A-------------------------------3/5-5-3-3-|
D-0--00--0-0--00--0-0--00--0-0------------|

G---------|
D---------|
A---------|
D-0-0-2-3-|
            
Tabs too difficult? Try these video lessons and learn fast.


comments powered by Disqus
↑ Back to top | Tablatures and chords are parodies/interpretations of the original songs. You may use it for private study, scholarship, research or language learning purposes only