>
 >
Adult Education

Adult Education Guitar Tabs

Hall And Oates - Adult Education chords, tabs, tablatures, lyrics

Guitar lessons | Add/correct | Request | Top 50 tabs Artists:  A B C D E F G H I J K L M N O P Q R S T U V W X Y Z 0-9

Adult Education Guitar Tabs – Hall And Oates

CD, Sheet music, Poster

Do you like Adult Education? Share with your friends now
Tabs
ADULT EDUCATION

(INTRO)

E|--15--15--15--17---8--10--7--10--8--10--8---10--8-----
B|--15--15--15--15---10-10--8--8---8--8---10--10--10----
G|------------------------------------------------------
D|------------------------------------------------------
A|------------------------------------------------------
E|------------------------------------------------------


    F    G    Am

E|--1----3----5------------------------------------
B|--1----3----5------------------------------------
G|--2----4----5------------------------------------
D|--3----5----7------------------------------------
A|--3----5----7------------------------------------
E|-------------------------------------------------


V1    (* - 2 guitarists... one plays Am, the other plays F for the 1st chord)
  Am/F                  G                    Am 
  It's afternoon in the homeroom and they're about to let you go.
  And the locker slam on the plan you had tonight.
  You've been messing around with a boyfriend maybe better left alone.
  There's a wise guy that you know could put you right.

V2
  Am/F                      G                 Am
  In the lot the boy that's idling by doesn't rev your heart.
  Cause it's only lonely spots he shares with you.
  And the long halls and the gray walls are gonna split apart.
  Believe it or not there's life after high school.

Ch
  Am/F                     G               Am
  The student body's got a bad reputation.
  What they need is adult education.
  Back to school it's a bad situation.
  But what you want is an adult education.  (Repeat INTRO riff)


V3
  Am/F                         G                    Am 
  The teacher don't know about how to deal with the student body.
  And the underclassmen are flashing hot and cool.
  All your girlfriends care about the watch you wear and they're talkin' about it.
  Believe it or not there's life after high school. (Chorus)


(Bridge)
Am                   G9  
They're calling it a preparation.
You're waiting for a separation.

Gsus                G
You're nothing but another odd number,
Memories that you won't remember.

Am                  G9  
So you got a little education.
And a lot of dedication.

Gsus                  G
But you want a little night school.
Maybe some of it will rub off on you.

Am                G9               
The boys are busy in the mirrors.
Trying to imitate their heroes.

Gsus                G
You make it with a false surrender.
More memories you won't remember.

Am                  G9  
The senior with the junior Miss's
I wonder what the junior wishes.

Gsus                G
That she could graduate to adult.      (G)
That she could graduate to adult kisses.


    Am   G9   Am  (* Listen to the recording for the proper rhythm)
    Adult Education (Adult Education)
E|--5----5----5---------------------------
B|--5----3----5---------------------------
G|--5----4----5---------------------------
D|--7----X----7---------------------------
A|--7----X----7---------------------------
E|--5----X----5---------------------------

** Repeat and/or create your own ending!




The CHORDS
    F    G    Am   G9  Gsus

E|--1----3----5----5----3---------------------------
B|--1----3----5----3----3---------------------------
G|--2----4----5----4----5---------------------------
D|--3----5----7----X----5---------------------------
A|--3----5----7----X----3---------------------------
E|--1----3----5----X----3---------------------------





Comments


Popular Hall And Oates tabs & chords
Maneater 1 Bass Tabs
Forever For You Chords
I Cant Go For That No Can Do Chords
Maneater 2 Chords
Sarah Smile Chords
Sarah Smile Intro 1 Tabs
Did It In A Minute Ukulele
Fall In Philadelphia Ukulele
Had I Known You Better Then Ukulele
I Cant Go For Thatno Can Do Ukulele


Song lyrics



↑ Back to top | Tablatures and chords are parodies/interpretations of the original songs. You may use it for private study, scholarship, research or language learning purposes only
© 2014 AZChords.com Contact us | Privacy policy | DMCA | Add/correct tabs | Request tabs | Top 50 tabs