>
 >
Under Fire

Under Fire Guitar Tabs

Halifax - Under Fire chords, tabs, tablatures, lyrics

Guitar lessons | Add/correct | Request | Top 50 tabs Artists:  A B C D E F G H I J K L M N O P Q R S T U V W X Y Z 0-9

Under Fire Guitar Tabs – Halifax

CD, Sheet music, Poster

Do you like Under Fire? Share with your friends now
Tabs
This is by no means a perfect tab. The lead parts in a lot of it were hard to
hear, but I tabbed what I could.

Chorus/Intro
E||-----------------------------------------------------------|
B||-----------------------------------------------------------|
G||----------5----7-------------------------------------------|
D||--0----0----------------0--5--7------0--3--5------0--3--0--|
A||--0----0--3----5--------0--5--7------0--3--5------0--3--0--|
D||--0----0----------------0--5--7------0--3--5------0--3--0--|

E||-----|-----|
B||-----|-----|
G||-----|-----|
D||--3--|--5--|
A||--3--|--5--|
D||--3--|--5--|

E||--------------------------------|
B||--------------------------------|
G||--<5>--<5>--<5>--<5>--<5>--<5>--|
D||--<5>--<5>--<5>--<5>--<5>--<5>--|
A||--------------------------------|
D||--------------------------------|

Verse
E||------------------------------|
B||------------------------------|
G||---------------3-----5-5--5-5-|
D||--0------3-----3-----5-5--5-5-|
A||--0------3-----1-----3-3--3-3-|
D||--0------3--------------------|


E||------------------------------|
B||------------------------------|
G||---------------3-----3-3--2-2-|
D||--0------3-----3-----3-3--2-2-|
A||--0------3-----1-----1-1--0-0-|
D||--0------3--------------------|


Prechorus
E||-----|-----|
B||-----|-----|
G||-----|-----|
D||--5--|--7--|
A||--5--|--7--|
D||--5--|--7--|

CHORUS

Postchorus [Not sure about this]
E||------------------------------|
B||------------------------------|
G||--2h3p2-----------------------|
D||--------2h3p2-----------------|
A||--------------2h3p2--0h2p0----|
D||------------------------------|

VERSE

Guitar two plays octaves (which are hard to hear).
E||----------------------------------|
B||----------------------------------|
G||--9------12-----14-12----5-5--5-5-|
D||-------------------------5-5--5-5-|
A||--7------10-----12-10----3-3--3-3-|
D||----------------------------------|

E||----------------------------------|
B||----------------------------------|
G||--9------12-----14-12----3-3--2-2-|
D||-------------------------3-3--2-2-|
A||--7------10-----12-10----1-1--0-0-|
D||----------------------------------|


Prechorus

Guitar one
E||-----|-----|
B||-----|-----|
G||-----|-----|
D||--5--|--7--|
A||--5--|--7--|
D||--5--|--7--|

Guitar two does an octave "build-up"
E||---------------------------------||
B||---------------------------------||
G||--9--11--12--14--12--14--17--19--||
D||---------------------------------||
A||--7---9--10--12--10--12--15--17--||
D||---------------------------------||

CHORUS

Guitar two plays...

    *every eighth note.. you can hear it.
E||--10*-|--12-|
B||------|-----|
G||--7-*-|--9--|
D||------|-----|
A||------|-----|
D||------|-----|

Postchorus

Guitar two does octaves revolving around the same chords used in the prechorus.
I didn't tab for the fact that it would get kinda confusing.

Bridge
E||-----|-----|-----|-----|
B||-----|-----|-----|-----|
G||--3--|--5--|-----|-----|
D||--3--|--5--|--5--|--7--|
A||--1--|--3--|--5--|--7--|
D||-----|-----|--5--|--7--|

E||-----|-----|-----|-----|
B||-----|-----|-----|-----|
G||--3--|--5--|--7--|-----|
D||--3--|--5--|--7--|--7--|
A||--1--|--3--|--5--|--7--|
D||-----|-----|-----|--7--|

E||-----|-----|-----|-----|
B||-----|-----|-----|-----|
G||--3--|--3--|--5--|--5--|
D||--3--|--3--|--5--|--5--|
A||--1--|--1--|--3--|--3--|
D||-----|-----|-----|-----|

E||-----|-----|
B||-----|-----|
G||--5--|-----|
D||--5--|--7--|
A||--3--|--7--|
D||-----|--7--|

Chorus 2                     PINCH HARMONIC
E||------------|------------|----------------------||
B||------------|------------|----------------------||
G||--5----7----|------------|--<>7~----------------||
D||--5----7----|--5----7----|----------------------||
A||--3----5----|--5----7----|----------------------||
D||------------|--5----7----|----------------------||
     
CHORUS 

Postchorus [Not sure about this]
E||------------------------------|
B||------------------------------|
G||--2h3p2-----------------------|
D||--------2h3p2-----------------|
A||--------------2h3p2--0h2p0----|
D||------------------------------|

OUTRO
In the end, they do that first part of the chorus riff (the C to D octave slide)





Comments


Popular Halifax tabs & chords
Giant In The Ring Bass Tabs
C.H.A.O.S Chords
Finished In A Day Chords
Sydney Chords
Anthem For Tonight Intro 1 Tabs
Broken Glass Syndrome 1 Tabs
Call All Your Reserves Tabs
Finished In A Day Tabs
I Told You So Intro Tabs
Our Revolution 1 Tabs


Song lyrics



↑ Back to top | Tablatures and chords are parodies/interpretations of the original songs. You may use it for private study, scholarship, research or language learning purposes only
© 2014 AZChords.com Contact us | Privacy policy | DMCA | Add/correct tabs | Request tabs | Top 50 tabs