» » »

Halifax, Ten Fingers Isn't Quite Enough Tabs (ver.1)

Artists:  A B C D E F G H I J K L M N O P Q R S T U V W X Y Z # 

Ten Fingers Isn't Quite Enough Tabs (ver.1)

Halifax Tabs
 Rating:
4/5 (4 votes)
Ten Fingers Isn't Quite Enough lessons Tabs too difficult? Try these video lessons and learn fast
                -------------------------------------------------------------------------------
-------------------------------------------------------------------------------
Band: Halifax


Tuning: Standard

I'm pretty sure this is almost exact, because i listened to the song at least 40
times to get all of it. It's pretty easy as well, which is good I guess. I haven't
seen any other tabs for this, so rate well please, because this is also my first tab.
This is only the lead guitar part.

--LEAD GUITAR--

Intro (x2)
e|------------------------------------------------|
B|------777-55-444-555-44------777-55-444-555-77--|
G|--444--------------------444--------------------|
D|------------------------------------------------|
A|------------------------------------------------|
E|------------------------------------------------|

e|----------------------------------------------|
B|------777-55-444-555-44----2222--444--222-00--|
G|--444-----------------------------------------|
D|----------------------------------------------|
A|----------------------------------------------|
E|----------------------------------------------|

Verse (x2)
e|--------------------------------------------------------------------------|
B|--------------------------------------------------------------------------|
G|-4-4-4-----------4--------------4-4-4-----------4-------------------------|
D|-4-4-4------4--------4-----4----4-4-4------4--------4-----4---------------|
A|-2-2-2---22---22---2----22------2-2-2---22---22---2----22-------------x2--|
E|--------------------------------------------------------------------------|
           ..   ..   .    ..              ..   ..   .    ..

   "My arms..."

e|-------------------------------------------------------------|
B|-------------------------------------------------------------|
G|-------------------------------------------------------------|
D|-4-4-4---4-4--4--4-4--4-4--4-4--4--------6-6-6-6----2-2-2-2--|
A|-4-4-4---4-4--4--4-4--4-4--4-4--4--------6-6-6-6----2-2-2-2--|
E|-2-2-2---2-2--2--2-2--2-2--2-2--2--------4-4-4-4----0-0-0-0--|
           . .     . .       . .

   "From holding this relationship...."

Pre-Chorus (x1)
e|------------------------------------------------------------------------------|
B|------------------------------------------------------------------------------|
G|------------------------------------------------------------------------------|
D|-2-----6-6-6-6---4-4-4-4---2---6-6-6---4-4-4---2---6-6-6-6--4-4-4-4-2*----2x--|
A|-2-----6-6-6-6---4-4-4-4---2---6-6-6---4-4-4---2---6-6-6-6--4-4-4-4-2-----2x--|
E|-0-----4-4-4-4---2-2-2-2---0---4-4-4---2-2-2---0---4-4-4-4--2-2-2-2-0-----0x--|
                                 . . .   . . .
"...care..."

Chorus(x2)
e|---------------------------------------------|
B|-----777-55-444-555-44----777-55-444-555-77--|
G|--444------------------444-------------------|
D|---------------------------------------------|
A|---------------------------------------------|
E|---------------------------------------------|

e|--------------------------------------------|
B|-----777-55-444-555-44---2222--444--222-00--|
G|--444---------------------------------------|
D|--------------------------------------------|
A|--------------------------------------------|
E|--------------------------------------------|

   "This could mean goodbye..."

Verse x2
Pre-chorus x1
Chorus x2

Bridge

(strumming pattern not shown)
e|--------------------------------------------------------------------------------------|
B|--------------------------------------------------------------------------------------|
G|-13--------11---9--------11--------16-------------------------------------------------|
D|-x---------x----x--------x---------x--------------------------------------------------|
A|-11--------9----7--------9---------14-------------x2----------------------------------|
E|--------------------------------------------------------------------------------------|


e|-------------------------------------|
B|-------------------------------------|
G|--13*-------(-11--9------11---16--)--|
D|--x---------(-x---x------x----x---)--|
A|--11--------(-9---7------9----14--)--|
E|-------------------------------------|
                            For the parenthesed parts, just slide up
                           and down the neck, don't actually hit the chords.
  "The world is..."

e|-------------------------------------------------------|
B|---9----9---9----9----7---5----5----5--5------5-----5--|
G|-66---66---6---66---66---6---22---22--2-----22----22---|
D|-------------------------------------------------------|
A|-------------------------------------------------------|
E|-------------------------------------------------------|
   ..   ..   .   ..   ..   .   ..   ..  .     ..    ..

  "The world is..."

e|------------------------------------------------------------|
B|---7---7---7----7----7---7----------------------------------|
G|-44--44---4---44---44---4-------16---strum-this-last-chord--|
D|--------------------------------x----times-whatever.--------|
A|--------------------------------14--------------------------|
E|------------------------------------------------------------|
   ..  ..   .   ..   ..   .

"The world is...."               "Apart....."


Chorus x2


End on this chord.
e|-----------------------------------------------------------------------------|
B|-----------------------------------------------------------------------------|
G|-4-*-------------------------------------------------------------------------|
D|-4---------------------------------------------------------------------------|
A|-2---------------------------------------------------------------------------|
E|-----------------------------------------------------------------------------|


Enjoy.

| .  palm mute
| /  slide up
| \  slide down
| h  hammer-on
| p  pull-off
| ~  vibrato
| +  harmonic
| x  dead note
===============================================================================
            
Submit corrections

comments powered by Disqus
↑ Back to top | Halifax Tabs for Ten Fingers Isn't Quite Enough. Lyrics for acoustic guitar and electric guitar. Tablatures and chords are parodies/interpretations of the original songs. You may use it for private study, scholarship, research or language learning purposes only