>
 >
Sydney 3

Sydney 3 Guitar Tabs

Halifax - Sydney 3 chords, tabs, tablatures, lyrics

Guitar lessons | Add/correct | Request | Top 50 tabs Artists:  A B C D E F G H I J K L M N O P Q R S T U V W X Y Z 0-9

Sydney 3 Guitar Tabs – Halifax

CD, Sheet music, Poster

Do you like Sydney 3? Share with your friends now
Bass TabsChordsChords v2Chords v3TabsTabs v2Tabs v3UkuleleUkulele v2

Tuning: 1/2 Step Down (Eb Ab Db Gb Bb Eb)

**This isn't completely, 100% accurate, but pretty dang close.  If you have any comments 


 INTRO

 Guitar 1
|---33333333-3-33666666--10-10----10----10----10----10---|
|---33333333-3-33333333--11---11----11----11----11----11-|
|---33333333-3-33333333--12-----12----12----12----12-----|
|---55555555-5-55555555--12------------------------------|
|---55555555-5-55555555--10------------------------------|
|-3-33333333-3-33333333--10------------------------------|

|-10-10----10----10-13----13------13--|
|-10---10----10-------10----10--------|
|-10-----10----10-------10----10------|  (play whole section twice)
|-10----------------------------------|
|-10----------------------------------|
|-10----------------------------------|

 Guitar 2
|----33333333-3-33333333--66666666-55-66-8-8--1010---|
|o---33333333-3-33333333--88888888-66-88-1010-1111--o|
|----33333333-3-33333333--88887777-55-88-1010-1212---|
|----55555555-5-55555555--88888888-77-88-1010-1212---|
|o---55555555-5-55555555--66666666-55-66-8-8--1010--o|
|--3-33333333-3-33333333--66666666-55-66-8-8--1010---|


VERSE I

 Guitar 1                                  1st...
|----33333333-3-11111111-66666666-55-66--||-8-8--1010---|
|o---33333333-3-11111111-88888888-66-88--||-1010-1111--o|
|----33333333-3-22222222-88888888-55-88--||-1010-1212---|
|----55555555-5-33333333-88888888-77-88--||-1010-1212---|
|o---55555555-5-33333333-66666666-55-66--||-8-8--1010--o|
|--3-33333333-3-11111111-66666666-55-66--||-8-8--1010---|

 2nd...
|-8-8-8-8--10~~-8-~~-|
|-10101010-11~~-10~~-|
|-10101010-12~~-10~~-|
|-10101010-12~~-10~~-|
|-8-8-8-8--10~~-8-~~-|
|-8-8-8-8--10~~-8-~~-|

 Guitar 2                                  1st...        2nd...
|----33333333-3-11111111-66666666-55-66--||-8-8--1010---|-8-8-8-8--6~~-5~~-|
|o---33333333-3-11111111-88888888-66-88--||-1010-1111--o|-10101010-8~~-6~~-|
|----33333333-3-22222222-88887777-55-88--||-1010-1212---|-10101010-8~~-5~~-|
|----55555555-5-33333333-88888888-77-88--||-1010-1212---|-10101010-8~~-7~~-|
|o---55555555-5-33333333-66666666-55-66--||-8-8--1010--o|-8-8-8-8--6~~-5~~-|
|--3-33333333-3-11111111-66666666-55-66--||-8-8--1010---|-8-8-8-8--6~~-5~~-|


PRE CHORUS

 Guitar 1
|-----------------------------------------|
|-------------11----------------------11--|
|-------12-------12----12-------12--------|
|----12----12-------12-------12----12-----|
|-10----------------------10--------------|
|-----------------------------------------|

 Guitar 2
|-3~~~-----------------------------|
|-3~~~-----------------------------|
|-3~~~-------------------------7/8-|
|-5~~~-------------------------7/8-|
|-5~~~-------------------------5/6-|
|-3~~~-----------------------------|

CHORUS

 Guitar 1                            1st...         2nd...
|--33333333-3-11111-1-3-5-66666666-||-33333333-----|-10~~~----|
|o-33333333-3-11111-1-3-6-88888888-||-44444444----o|-11~~~----|
|--33333333-3-22222-2-3-5-88887777-||-55555555-77--|-12~~~----|
|--55555555-5-33333-3-5-7-88888888-||-55555555-77--|-12~~~----|
|o-55555555-5-33333-3-5-5-66666666-||-33333333-55-o|-10~~~----|
|--33333333-3-11111-1-3-5-66666666-||-33333333-----|-10~~~----|

 Guitar 2                        1st...          2nd...
|--33333333-3-11111111-66666666-|-33333333------|-3~~~----|
|o-33333333-3-11111111-88888888-|-44444444-----o|-3~~~----|
|--33333333-3-22222222-88888888-|-55555555-7\8--|-3~~~----|
|--55555555-5-33333333-88888888-|-55555555-7\8--|-5~~~----|
|o-55555555-5-33333333-66666666-|-33333333-5\6-o|-5~~~----|
|--33333333-3-11111111-66666666-|-33333333------|-3~~~----|


PRE VERSE

 Guitar 1
|---33333333-3-36666666-|
|---33333333-3-33333333-|
|---33333333-3-33333333-|
|---55555555-5-55555555-|
|---55555555-5-55555555-|
|-3-33333333-3-33333333-|

 Guitar 2
|---33333333-3-33333333-|
|---33333333-3-33333333-|
|---33333333-3-33333333-|
|---55555555-5-55555555-|
|---55555555-5-55555555-|
|-3-33333333-3-33333333-|


VERSE II

 Guitar 1
|-66666666-55-66-8-8--1010-|
|-88888888-66-88-1010-1111-|
|-88888888-55-88-1010-1212-|
|-88888888-77-88-1010-1212-|
|-66666666-55-66-8-8--1010-|
|-66666666-55-66-8-8--1010-|
                                          1st...
|----33333333-3-11111111-66666666-55-66--|-8-8--1010---|
|o---33333333-3-11111111-88888888-66-88--|-1010-1111--o|
|----33333333-3-22222222-88888888-55-88--|-1010-1212---|
|----55555555-5-33333333-88888888-77-88--|-1010-1212---|
|o---55555555-5-33333333-66666666-55-66--|-8-8--1010--o|
|--3-33333333-3-11111111-66666666-55-66--|-8-8--1010---|

 2nd...
|-8-8-8-8--10~~-8-~~-|
|-10101010-11~~-10~~-|
|-10101010-12~~-10~~-|
|-10101010-12~~-10~~-|
|-8-8-8-8--10~~-8-~~-|
|-8-8-8-8--10~~-8-~~-|

 Guitar 2
|-66666666-55-66-8-8--1010-|
|-88888888-66-88-1010-1111-|
|-88888888-55-88-1010-1212-|
|-88888888-77-88-1010-1212-|
|-66666666-55-66-8-8--1010-|
|-66666666-55-66-8-8--1010-|
                                          1st...        2nd...
|----33333333-3-11111111-66666666-55-66--|-8-8--1010---|-8-8-8-8--6~~-5~~-|
|o---33333333-3-11111111-88888888-66-88--|-1010-1111--o|-10101010-8~~-6~~-|
|----33333333-3-22222222-88888888-55-88--|-1010-1212---|-10101010-8~~-5~~-|
|----55555555-5-33333333-88888888-77-88--|-1010-1212---|-10101010-8~~-7~~-|
|o---55555555-5-33333333-66666666-55-66--|-8-8--1010--o|-8-8-8-8--6~~-5~~-|
|--3-33333333-3-11111111-66666666-55-66--|-8-8--1010---|-8-8-8-8--6~~-5~~-|


Play "PRE CHORUS"


Play "CHORUS"


BRIDGE

 Guitar 1
|-10~~-8-~~-6~~-3~~-10~~-8-~~-6~~-|
|-11~~-10~~-8~~-4~~-11~~-10~~-8~~-|
|-12~~-10~~-8~~-5~~-12~~-10~~-8~~-|
|-12~~-10~~-8~~-5~~-12~~-10~~-8~~-|
|-10~~-8-~~-6~~-3~~-10~~-8-~~-6~~-|
|-10~~-8-~~-6~~-3~~-10~~-8-~~-6~~-|

|-33-55-66-8-8--55-66-8-8--1010-1313131313131313-10101010-8-8-8-8--|
|-44-66-88-1010-66-88-1010-1111-1515151515151515-11111111-10101010-|
|-55-55-88-1010-55-88-1010-1212-1515151515151515-12121212-10101010-|
|-55-77-88-1010-77-88-1010-1212-1515151515151515-12121212-10101010-|
|-33-55-66-8-8--55-66-8-8--1010------------------10101010-8-8-8-8--|
|-33-55-66-8-8--55-66-8-8--1010------------------10101010-8-8-8-8--|

|-33333333-33333333-8-8-8-8-8-8-8-8--10101010-8-8-8-8--66666666-|
|-33333333-33333333-1010101010101010-11111111-10101010-88888888-|
|-33333333-33333333-1010101010101010-12121212-10101010-88888888-|
|-55555555-55555555-1010101010101010-12121212-10101010-88888888-|
|-55555555-55555555-8-8-8-8-8-8-8-8--10101010-8-8-8-8--66666666-|
|-33333333-33333333-8-8-8-8-8-8-8-8--10101010-8-8-8-8--66666666-|

|-6~~-8-~~-10~~-6~~-8-~~-|
|-8~~-10~~-11~~-8~~-10~~-|
|-8~~-10~~-12~~-8~~-10~~-|
|-8~~-10~~-12~~-8~~-10~~-|
|-6~~-8-~~-10~~-6~~-8-~~-|
|-6~~-8-~~-10~~-6~~-8-~~-|

|-----------------------------------------|
|-------------11----------------------11--|
|-------12-------12----12-------12--------|
|----12----12-------12-------12----12-----|
|-10----------------------10--------------|
|-----------------------------------------|

 Guitar 2
|---------3--------|      |---------3--------|
|-----3-----3---3--|      |-----3-----3---3--|
|---3---3-----3----|      |---3---3-----3----|
|------------------| x2   |-3----------------| x2
|------------------|      |------------------|
|-3----------------|      |------------------|

|---------3--------|      |---------3--------|
|-----3-----3---3--|      |-----4-----4---4--|
|---3---3-----3----|      |---5---5-----5----|
|------------------| x2   |------------------| x2
|-6----------------|      |-3----------------|
|------------------|      |------------------|


Play the above part twice.

On the second time, only play the first three pick patterns.

Then move straight into this...

|-33-33-33-55-66-66-66-66-8-8-8-8-8-8-8-8--3333-1111--|
|-44-44-44-66-88-88-88-88-1010101010101010-3333-1111--|
|-55-55-55-55-88-88-88-88-1010101010101010-3333-2222--|
|-55-55-55-77-88-88-88-88-1010101010101010-5555-3333--|
|-33-33-33-55-66-66-66-66-8-8-8-8-8-8-8-8--5555-3333--|
|-33-33-33-55-66-66-66-66-8-8-8-8-8-8-8-8--3333-1111--|

|-66666666-66666666-8-8-8-8-8-8-8-8--3333-1111-66666666-|
|-88888888-88888888-1010101010101010-3333-1111-88888888-|
|-88888888-88888888-1010101010101010-3333-2222-88888888-|
|-88888888-88888888-1010101010101010-5555-3333-88888888-|
|-66666666-66666666-8-8-8-8-8-8-8-8--5555-3333-66666666-|
|-66666666-66666666-8-8-8-8-8-8-8-8--3333-1111-66666666-|

|-6~~-8-~~-10~~---|
|-8~~-10~~-11~~---|
|-8~~-10~~-12~~---|
|-8~~-10~~-12~~---|
|-6~~-8-~~-10~~---|
|-6~~-8-~~-10~~---|

*pause*

|---------3-------|---------3-------|----------|
|-----3-----3---3-|-----3-----3---3-|----------|
|---3---3-----3---|---3---3-----3---|----------|
|-----------------|-3---------------|-5~~------|
|-6---------------|-----------------|----------|
|-----------------|-----------------|----------|


Play "CHORUS"


OUTRO

 Guitar 1
|---33333333-3-33666666-|-10h11p10-8/10-|
|---33333333-3-33333333-|---------------|
|---33333333-3-33333333-|---------------|
|---55555555-5-55555555-|---------------|
|---55555555-5-55555555-|---------------|
|-3-33333333-3-33333333-|---------------|

 Guitar 2
|---33333333-3-33333333-|-6h8p6-----|
|---33333333-3-33333333-|-------6/8-|
|---33333333-3-33333333-|-----------|
|---55555555-5-55555555-|-----------|
|---55555555-5-55555555-|-----------|
|-3-33333333-3-33333333-|-----------|





Comments


Popular Halifax tabs & chords
Sydney Chords
Anthem For Tonight Intro Tabs
Finished In A Day Tabs
I Hate Your Eyes 2 Tabs
I Told You So Tabs
Our Last Dance Tabs
Our Revolution Tabs
Our Revolution 2 Tabs
Such A Terrible Trend Intro Tabs
Ten Fingers Isn't Quite Enough Tabs


Song lyrics



↑ Back to top | Tablatures and chords are parodies/interpretations of the original songs. You may use it for private study, scholarship, research or language learning purposes only
© 2014 AZChords.com Contact us | Privacy policy | DMCA | Add/correct tabs | Request tabs | Top 50 tabs