» » »

Halifax, Sydney Tabs (ver.3)

Artists:  A B C D E F G H I J K L M N O P Q R S T U V W X Y Z # 

Sydney Tabs (ver.3)

Halifax Tabs
 Rating:
4/5 (4 votes)
Sydney lessons Tabs too difficult? Try these video lessons and learn fast
                band - Halifax
song - Sydney
album - A writer's reference
tuning - Eb Ab Db Gb Bb Eb

Halifax is a new band that recently got signed to Drive-Thru Records. Their debut EP A
Writer's Reference is in stores now. This is their purevolume site:
Hope you guys like them.

INTRO guitar one 2X
e|--------------------------------|
b|--------------------------------|
g|--------------------------------|
d|-2--------------2-2-------------|
a|-2--------------2-2-------------|
E|-0--------------0-0-------------|

INTRO guitar two 2X
e|--------------------------------|
b|--------------------88888888888-|
g|---99999999999------99999999999-|
d|--------------------------------|
a|--------------------------------|
E|--------------------------------|

Both guitars in unison 2X
e|--------------------------------|
b|--------------------------------|
g|--------------------------------|
d|-55-44-22-44----55-44-77-55-----|
a|-33-33-33-33----55-55-55-55-----|
E|--------------------------------|

VERSE guitar 1 only
e|----------------------|
b|----------------------|
g|--------------9999999-|
d|-2--xxx--22---xxxxxxx-|
a|-2--xxx--22---7777777-|
E|-0--xxx--00-----------|

guitar 2 after guitar one is done
e|-------------------------|
b|-------------------------|
g|-555555--777777----------|
d|-555555--777777--555555--|
a|-333333--555555--555555--|
E|-----------------333333--|
    *****   *****   *****

PRECHORUS guitar 2
e|--------------------|
b|--------------------|
g|------777--555--4~--|
d|-222--777--555--2~--|
a|-222--555--333--0~--|
E|-000----------------|

CHORUS both guitars in unison
e|-----------------------------|
b|-----------------------------|
g|--------77777--55555---------|
d|-22222--55555--55555--22222--|
a|-22222--55555--33333--22222--|
E|-00000----------------00000--|

e|-------------------------------|
b|-------------------------------|
g|--------77777--55555-----------|
d|-22222--55555--55555--22--2-xx-|
a|-22222--55555--33333--22--2-xx-|
E|-00000----------------00--0-xx-|
            
Submit corrections

comments powered by Disqus
↑ Back to top | Halifax Tabs for Sydney. Lyrics for acoustic guitar and electric guitar. Tablatures and chords are parodies/interpretations of the original songs. You may use it for private study, scholarship, research or language learning purposes only