» » »

Halifax, Sydney Bass tabs (ver.1)

Artists:  A B C D E F G H I J K L M N O P Q R S T U V W X Y Z # 

Sydney Bass tabs (ver.1)

Halifax Tabs
 Rating:
3.8/5 (5 votes)
Sydney lessons Tabs too difficult? Try these video lessons and learn fast
1
                Intro
G|-------------------------------------------------|
D|-------------------------------------------------|
A|----------------------33-55-33-55-5555555555-----|
E|-0--------0-0-12/1-------------------------------|2x

Verse
G|-----------------------------------|
D|-----------------------------------|
A|--------------333333333--555555555-|
E|-0-------00------------------------|1x

G|-------------|
D|-------------|
A|-------------|
E|-0-------00--|1x

Pre-chorus
G|------------------------------------|
D|------------------------------------|
A|---3333333--5555555---3~--5~--7~----|
E|------------------------------------|1x

Chorus
G|--------------------------------------------|
D|--------------------------------------------|
A|-----------55555555--33333333---------------|
E|-00000000---------------------00000000-12/1-|1x

G|-----------------------------------|
D|-----------------------------------|
A|----------55555555--33333333-------|
E|-00000000--------------------00--0-|1x

Verse
G|---------------------------------------|
D|---------------------------------------|
A|------------------333333333--555555555-|
E|-0-------00-12/1-----------------------|2x

G|-------------|
D|-------------|
A|-------------|
E|-0-------00--|1x

Pre-chorus
G|------------------------------------|
D|------------------------------------|
A|---3333333--5555555---3~--5~--7~----|
E|------------------------------------|1x

Chorus
G|----------------------------------------|
D|----------------------------------------|
A|-----------55555555--33333333-----------|
E|-00000000---------------------00000000--|1x

G|-----------------------------------|
D|-----------------------------------|
A|----------55555555--33333333-------|
E|-00000000--------------------00--0-|1x

Bridge
G|------------------------|
D|------------------------|
A|------------------------|
E|-0~---5h3-1~h3---5h3-1~-|

G|--------------------------------------------------|
D|--------------------------------------------------|
A|-33333333-55555555-7777777777777-55555555-3333333-|
E|--------------------------------------------------|

G|----------------------------------------|
D|----------------------------------------|
A|-3333333-5555555-7777777-555555-3333333-|
E|----------------------------------------|

G|----------|
D|----------|
A|-3~-5~-7~-|
E|----------|2x

Chorus
G|----------------------------------------|
D|----------------------------------------|
A|-----------55555555--33333333-----------|
E|-00000000---------------------00000000--|1x

G|-----------------------------------|
D|-----------------------------------|
A|----------55555555--33333333-------|
E|-00000000--------------------00--0-|1x

Outro
G|-------------|
D|-------------|
A|-------------|
E|-0-------00--|3x
            
Submit corrections

comments powered by Disqus
↑ Back to top | Halifax Bass for Sydney. Lyrics for acoustic guitar and electric guitar. 1 Tablatures and chords are parodies/interpretations of the original songs. You may use it for private study, scholarship, research or language learning purposes only