>
 >
Sydney

Sydney Guitar Tabs

Halifax - Sydney chords, tabs, tablatures, lyrics

Guitar lessons | Add/correct | Request | Top 50 tabs Artists:  A B C D E F G H I J K L M N O P Q R S T U V W X Y Z 0-9

Sydney Guitar Tabs – Halifax

CD, Sheet music, Poster

Do you like Sydney? Share with your friends now
Bass TabsChordsChords v2Chords v3TabsTabs v2Tabs v3UkuleleUkulele v2
----------------------------------------------------------------------------
----------------------------------------------------------------------------
Note: I split each section of the song so it is separated by "=========".
Tuning: Down  Step (Eb Ab Db Gb Bb eb)
	
 Intro:
 (Guitar 1)
eb|------------------------------------------------------------------------|
Bb|------------------------------------------------------------------------|
Gb|--------------------------------------------7777-9999-11111111-14141414-|
Db|--2x-----------22x--------------------------xxxx-xxxx-x-x-x-x--x-x-x-x--|
Ab|--2x-----------22x--------------------------5555-7777-9-9-9-9--12121212-|
Eb|--0x-----------00x------------------------------------------------------|

(Guitar 2)
eb|------------------33333333333---------------|
Bb|----55555555555---55555555555---------------|Play Intro 2x
Gb|--------------------------------------------|
Db|-----------------------------555-444-222-444|
Ab|-----------------------------333-333-333-333|
Eb|--------------------------------------------|

 ==========================================================================
Verse 1:
 (Guitar 1)
eb|---------xxx----------------|
Bb|---------xxx----------------|
Gb|---------xxx--------99999999|
Db|-2-22x---xxx-2--22x-xxxxxxxx|
Ab|-2-22x---xxx-2--22x-77777777|
Eb|-0-00x---xxx-0--00x---------|
                                                Play Verse 1 2x
(Guitar 2)
eb|-------------------------------------------|
Bb|---------------3h5p3----------------3h5p3--|
Gb|-5-55555555555------4-7-77777777777-------4|
Db|-5-55555555555--------7-77777777777--------|
Ab|-3-33333333333--------5-55555555555--------|
Eb|-------------------------------------------|
      ***********          ***********
 ===========================================================================

Pre-Chorus (clean)
 (Guitar 1)
eb|-----------------|
Bb|-----------------|
Gb|--------777777-4~|
Db|-222222-777777-2~|
Ab|-222222-555555-0~|
Eb|-000000----------|

 ============================================================================

Chorus:
 (Guitar 1)
eb|xxx---------------------------------------------------------000000000000|
Bb|xxx---------------------------------------------------------000000000000|
Gb|xxx-------------777777-9999-111111-141414141414-121212121212000000000000|
Db|xxx-222222222222xxxxxx-xxxx-x-x-x--x-x-x-x-x-x--x-x-x-x-x-x-777777777777|
Ab|xxx-222222222222555555-7777-9-9-9--121212121212-101010101010777777777777|
Eb|xxx-000000000000--------------------------------------------555555555555| 

eb|--------------------------------------------------------------------xxx-|
Bb|--------------------------------------------------------------------xxx-|
Gb|---------------777777-9999-111111-141414141414-121212121212---------xxx-|
Db|--222222222222-xxxxxx-xxxx-x-x-x--x-x-x-x-x-x--x-x-x-x-x-x----2x-2x-xxx-|
Ab|--222222222222-555555-7777-9-9-9--121212121212-101010101010---2x-2x-xxx-|
Eb|--000000000000------------------------------------------------0x-0x-xxx-|

(Guitar 2)
eb|-xxx--------------------------------------------0000000000000-|
Bb|-xxx--------------------------------------------0000000000000-|
Gb|-xxx--------------7777777777777777-555555555555-0000000000000-|
Db|-xxx-222222222222-7777777777777777-555555555555-7777777777777-|
Ab|-xxx-222222222222-5555555555555555-333333333333-7777777777777-|
Eb|-xxx-000000000000-------------------------------5555555555555-|

eb|----------------------------------------------------xxx-|
Bb|----------------------------------------------------xxx-|
Gb|---------------7777777777777777-555555555555--------xxx-|
Db|--222222222222-7777777777777777-555555555555-2x-2x--xxx-|
Ab|--222222222222-5555555555555555-333333333333-2x-2x--xxx-|
Eb|--000000000000-------------------------------0x-0x--xxx-|
============================================================================
Intro
============================================================================
Verse 2 
(Guitar 1)

eb|---------------------------------------------|--------|
Bb|---------------3h5p3-----------------3h5p3---|        |
Gb|-5-55555555555-------4-7-77777777777-------4-|        |
Db|-5-55555555555---------7-77777777777---------|        |
Ab|-3-33333333333---------5-55555555555---------|        |
Eb|---------------------------------------------|        |
PM    ...........           ...........                  |x3(on third 
                                                         |play first
                      part of verse 2 1x(Guitar 2)       |
eb|---------xxx----------------|                         |
Bb|---------xxx----------------|                         |
Gb|---------xxx-------99999999-|                         |
Db|-2-22x---xxx-2-22x-xxxxxxxx-|                         |
Ab|-2-22x---xxx-2-22x-77777777-|                         |
Eb|-0-00x---xxx-0-00x----------|-------------------------|
============================================================================



Pre-Chorus
(Guitar 1)
============================================================================
Chorus
============================================================================

Bridge
(Guitar 1)
eb|-----------------------(7)---------------------------|
Bb|----(7)-------------(7)-------(7)--------------------|
Gb|-------(7)-------(7)-------------(7)-----------------|
Db|------------(7)---------------------(7)--------------|
Ab|-----------------------------------------------------|
Eb|-----------------------------------------------------|

eb|----------------------------------------------------------------------|
Bb|----------------------------------------------------------------------|
Gb|-77-99-1111-1212-1212-1414-1616-1717-19191919191919191919191919191919-|
Db|-xx-xx-x-x--x-x--x-x--x-x--x-x--x-x--x-x-x-x-x-x-x-x-x-x-x-x-x-x-x-x--|
Ab|-55-77-9-9--1010-1010-1212-1414-1515-17171717171717171717171717171717-|
Eb|----------------------------------------------------------------------|

eb|----------------------------------------|
Bb|----------------------------------------|
Gb|-121212121212-11111111111--999999999999-|
Db|-x-x-x-x-x-x--x-x-x-x-x-x--xxxxxxxxxxxx-|
Ab|-101010101010-9-9-9-9-9-9--777777777777-|
Eb|----------------------------------------|

eb|------------------------------------------------------------------------|
Bb|------------------------------------------------------------------------|
Gb|9999999999999999-11111111111111111111111111111111-121212121212----------|
Db|xxxxxxxxxxxxxxxx-x-x-x-x-x-x-x-x-x-x-x-x-x-x-x-x-x-x-x-x-x-x-----------|
Ab|7777777777777777-9-9-9-9-9-9-9-9-9-9-9-9-9-9-9-9--101010101010----------|
Eb|------------------------------------------------------------------------|

eb|------------------------|
Bb|------------------------|
Gb|11111111111-999999999999|
Db|x-x-x-x-x-x-xxxxxxxxxxxx|
Ab|9-9-9-9-9-9-777777777777|
Eb|------------------------|

eb|-----------------------------------------------|Vary the picking
Bb|-(clean)---------------------------------------|pattern.
Gb|--------7-7777-5-5555-4-4444----0------5----4~-|
Db|-2-2222-7-7777-5-5555-2-2222---2-2-2--5-5-5-2~-|
Ab|-2-2222-5-5555-3-3333-0-0000--2---2--3---3--0~-|
Eb|-0-0000----------------------0-----------------|
Bridge
(Guitar 2)
eb|------------------------------------------------------------------------|
Bb|------------------------------------------------------------------------|
Gb|------------------------------------------------------------------------|
Db|2~---------------------------2~-----------------------------------------|
Ab|2~--(Play right after chorus)2~---(Play right after Guitar 1 harmonics)-|
Eb|0~---------------------------0~-----------------------------------------|
eb|------------------------------------------------------------------|
Bb|------------------------------------------------------------------|
Gb|-7777777777777777-9999999999999999-111111111111111111111111111111-|
Db|-7777777777777777-9999999999999999-111111111111111111111111111111-|
Ab|-5555555555555555-7777777777777777-9-9-9-9-9-9-9-9-9-9-9-9-9-9-9--|
Eb|------------------------------------------------------------------|

eb|----------------------------|
Bb|----------------------------|
Gb|-777777-555555--------------|
Db|-777777-555555-777777777777-|
Ab|-555555-333333-777777777777-|
Eb|---------------555555555555-|

eb|------------------------------------------------------------------|
Bb|------------------------------------------------------------------|
Gb|------------------------------------777777-555555--------------7~-|
Db|-7777777777777777-99999999999999999-777777-555555-777777777777-7~-|
Ab|-7777777777777777-99999999999999999-555555-333333-777777777777-5~-|
Eb|-5555555555555555-77777777777777777---------------555555555555----|

============================================================================
Chorus
============================================================================
Outro
 (Guitar 1)
eb|------------------33333333333--xxx----|
Bb|---55555555555----55555555555--xxx----|
Gb|-------------------------------xxx----|
Db|-2x-------------22x------------xxx-2x-|
Ab|-2x-------------22x------------xxx-2x-|
Eb|-0x-------------00x------------xxx-0x-|

(Guitar 2)
eb|------------------33333333333--xxx----|
Bb|---55555555555----55555555555--xxx----|
Gb|-------------------------------xxx----|
Db|-2x-------------22x------------xxx-2x-|
Ab|-2x-------------22x------------xxx-2x-|
Eb|-0x-------------00x------------xxx-0x-|
============================================================================


| /  slide up
| \  slide down
| h  hammer-on
| p  pull-off
| ~  vibrato
| +  harmonic
| x  Mute note
============================================================================





Comments


Popular Halifax tabs & chords
Our Last Dance Bass Tabs
Sydney 2 Chords
I Hate Your Eyes 2 Tabs
I Told You So Tabs
I Told You So Intro Tabs
Nightmare Tabs
Our Last Dance Tabs
Our Last Dance 1 Tabs
Sydney 1 Tabs
Sydney 2 Ukulele


Song lyrics



↑ Back to top | Tablatures and chords are parodies/interpretations of the original songs. You may use it for private study, scholarship, research or language learning purposes only
© 2014 AZChords.com Contact us | Privacy policy | DMCA | Add/correct tabs | Request tabs | Top 50 tabs