>
 >
Nightmare

Nightmare Guitar Tabs

Halifax - Nightmare chords, tabs, tablatures, lyrics

Guitar lessons | Add/correct | Request | Top 50 tabs Artists:  A B C D E F G H I J K L M N O P Q R S T U V W X Y Z 0-9

Nightmare Guitar Tabs – Halifax

CD, Sheet music, Poster

Do you like Nightmare? Share with your friends now
Tabs

Droped D Tuning
Listen to song for rhythm and timing.

no one has tried to tab this song so im giving it a shot.
i know im missing alot, but hey.. it's my second song ive ever tried to tab =P

INTRO

Guitar 1

e------------------------------------------------------------------------|
B------------------------------------------------------------------------|
G--7------------------7---------------7----------------------------------|
D--7--0---7-8-7-10-7--7-0---7-8-7-10--7-0---7-8-7-10-7-8888--------------|
A--5--0---7-8-7-10-7--5-0---7-8-7-10--5-0---7-8-7-10-7-8888---8-7--8-7---|
D-----0---7-8-7-10-7----0---7-8-7-10----0---7-8-7-10-7-8888------10---10-|

Guitar 2

e---------------------------------------------------------------------|
B---------------------------------------------------------------------|
G----------------------14--10-12-10-9--14--10-12-10-9-10-5555---------|
D-----------------------x---x--x--x-x---x---x--x--x-x--x-xxxx---------|
A----------------------12---8-10--8-7--12---8-10--8-7--8-3333---------|
D---------------------------------------------------------------------|

VERSE

Guitar 1
it's second nature for you...

e-------------------------------------------------------    e---------|
B-------------------------------------------------------    B---------|
G-----------------------------------------------5--5-5~- x2 G---------|
D--0--0-0-000--000-8--8-8~--3-2---3--3-3~--2-3--5--5-5~-    D-3-2---2-|
A--0--0-0-000--000-8--8-8~------3-3--3-3~-------3--3-3~-    A-----3---|
D--0--0-0-000--000-8--8-8~--------3--3-3~---------------    D---------|
          xx   xx

Guitar 2

e------------------------------------------------------------|
B------------------------------------------------------------|
G----12-10---------9-10----------14-12----------9-10---------|
D----x--x----------x-x-----------x--x-----------x-x----------|
A----10-8----------7-8-----------12-10----------7-8----------|
D------------------------------------------------------------|

PRE-CHORUS

Guitar 1
tonight tonight...                 ..and if i try to say your name..

e-------------------------------      e-------------------------------|
B-------------------------------      B-------------------------------|
G--3-33--55-55--55/7--55/7--7-5-  X2  G--3-33--55-55------------------|
D--3-33--55-55--55/7--55/7--7-5-      D--3-33--55-55--7-77-788--------|
A--1-11--33-33--33/5--33/5--5-3-      A--1-11--33-33--7-77-788--------|
D-------------------------------      D---------------7-77-788--------|

Guitar 2 (begins on the last two beats of the 1st time around)

e-------------------------------------------------------------|
B-------------------------------------------------------------|
G--10-12---14-14--14-14--12-12--12-12--12-10-10--12-12-10-10--|
D---x--x----x--x--x--x---x--x---x--x----x--x--x---x--x--x--x--|
A---8-10---12-12--12-12--10-10--10-10--10--8--8--10-10--8--8--|
D-------------------------------------------------------------|

e-----------------------------------------------------------------|
B-----------------------------------------------------------------|
G-10-12---14-14--14-14--12-12--12-12--10-10--10-10---10-12--------|
D--x--x----x--x--x--x---x--x---x--x----x--x---x--x----x--x--------|
A--8-10---12-12--12-12--10-10--10-10---8--8---8--8----8-10--------|
D-----------------------------------------------------------------|

CHORUS
it's your nightmare..

e----------------------------------------------------------------------|
B----------------------------------------------------------------------|
G------------3~--------------5555------------3~--------------5555------|
D--0~-XX-XX--3~-XX-XX--3333--5555--0~-XX-XX--3~-XX-XX--3333--5555------|
A--0~-XX-XX--1~-XX-XX--3333--3333--0~-XX-XX--1~-XX-XX--3333--3333------|
D--0~-XX-XX-----XX-XX--3333--------0~-XX-XX-----XX-XX--3333------------|

e-----------------------------------------------------|
B-----------------------------------------------------|
G--------3333--------5555--------3333--------5555-----|
D--0000--3333--3333--5555--0000--3333--3333--5555--8~-|
A--0000--1111--3333--3333--0000--1111--3333--3333--8~-|
D--0000--------3333--------0000--------3333--------8~-|

Guitar 2 (begins and repeats on x355xx)

e-------------------------|
B-------------------------|
G--5-5--7-7--9-9--10------|
D--x-x--x-x--x-x---x------|
A--3-3--5-5--7-7---8------|
D-------------------------|

POST CHORUS

Guitar 1

e-------------------------------------------|
B-------------------------------------------|
G------7------------------7-----------------|
D-0-7--7--0---7-8-7-10-7--7-0---7-8-7-10----|
A-0-7--5--0---7-8-7-10-7--5-0---7-8-7-10----|
D-0-7-----0---7-8-7-10-7----0---7-8-7-10----|

Guitar 2

e-------------------------------------------|
B-------------------------------------------|
G-7-9-10-------------------14--10-12-10-9---|
D-x-x--x--------------------x---x--x--x-x---|
A-5-7--8-------------------12---8-10--8-7---|
D-------------------------------------------|

VERSE2

Guitar 1
abord this troubled ambulance...

e-------------------------------------------------------    e---------|
B-------------------------------------------------------    B---------|
G-----------------------------------------------5--5-5~- x2 G---------|
D--0--0-0-000--000-8--8-8~--3-2---3--3-3~--2-3--5--5-5~-    D-3-2---2-|
A--0--0-0-000--000-8--8-8~------3-3--3-3~-------3--3-3~-    A-----3---|
D--0--0-0-000--000-8--8-8~--------3--3-3~---------------    D---------|
          xx   xx

Guitar 2

e---------------------------------------------------------------|
B---------------------------------------------------------------|
G----14-12-10---------9-10----------14-12----------9-10---------|
D----x--x--x----------x-x-----------x--x-----------x-x----------|
A----12-10-8----------7-8-----------12-10----------7-8----------|
D---------------------------------------------------------------|

PRECHORUS (x1)

CHORUS2
it's your nightmare..

e----------------------------------------------------------------------|
B----------------------------------------------------------------------|
G------------3~--------------5555------------3~--------------5555------|
D--0~-XX-XX--3~-XX-XX--3333--5555--0~-XX-XX--3~-XX-XX--3333--5555------|
A--0~-XX-XX--1~-XX-XX--3333--3333--0~-XX-XX--1~-XX-XX--3333--3333------|
D--0~-XX-XX-----XX-XX--3333--------0~-XX-XX-----XX-XX--3333------------|

e-------------------------------------------------------------------|
B-------------------------------------------------------------------|
G--------3333--------5555--------3333--------5555-------------------|
D--0000--3333--3333--5555--0000--3333--3333--5555--8~-10~-----------|
A--0000--1111--3333--3333--0000--1111--3333--3333--8~-10~--77778888-|
D--0000--------3333--------0000--------3333--------8~-10~-----------|

Guitar 2 (begins and repeats on x355xx)

e-------------------------|
B-------------------------|
G--5-5--7-7--9-9--10------|
D--x-x--x-x--x-x---x------|
A--3-3--5-5--7-7---8------|
D-------------------------|

BRIDGE
   ....if im the cure and you're the disease..

e------------------------------------------|
B------------------------------------------|
G------------55555555------------33335555--|
D--33333333--55555555--00000000--33335555--|
A--33333333--33333333--00000000--11113333--|
D--33333333------------00000000------------|

e--------------------------------------------|
B--------------------------------------------|
G------------55555555--------------33335555--|
D--33333333--55555555-xx-00000000--33335555--|
A--33333333--33333333-xx-00000000--11113333--|
D--33333333-----------xx-00000000------------|

PRE-CHORUS (clean electric)

Guitar 1
tonight tonight...                 ..and if i try to say your name..

e-------------------------------      e-------------------------------|
B-------------------------------      B-------------------------------|
G--3-33--55-55--55/7--55/7--7-5-  X2  G--3-33--55-55------------------|
D--3-33--55-55--55/7--55/7--7-5-      D--3-33--55-55--7-77-788--------|
A--1-11--33-33--33/5--33/5--5-3-      A--1-11--33-33--7-77-788--------|
D-------------------------------      D---------------7-77-788--------|

Guitar 2

e-----------------------------------------------------|
B--10--10--10--10--10--10--10--10---8---8---8---8-----|
G----10--10--10--10--10--10--10--10--10--10--10--10---| play around with
D-----------------------------------------------------| this pattern.
A-----------------------------------------------------|
D-----------------------------------------------------|

CHORUS
its your nightmare..
e----------------------|
B----------------------|
G-------3------5555----|
D--0--0-3-3333-5555----| repeat chorus with straight quarter notes.
A--0--0-1-3333-3333----|
D--0--0---3333---------|

ENDING

Guitar 1

e------------------------------------------------|
B------------------------------------------------|
G------7------------------7------------------7~--|
D--0-7-7--0---7-8-7-10-7--7-0---7-8-7--7-8-7-7~--|
A--0-7-5--0---7-8-7-10-7--5-0---7-8-7--7-8-7-5~--|
D--0-7----0---7-8-7-10-7----0---7-8-7--7-8-7--~--|

Guitar 2

e--------------------------------------------------|
B--------------------------------------------------|
G--7-9-10------------------14--10-12-10-9-10-9-10--|
D--x-x--x-------------------x---x--x--x-x--x-x--x--|
A--5-7--8------------------12---8-10--8-7--8-7--8--|
D--------------------------------------------------|





Comments


Popular Halifax tabs & chords
Anthem For Tonight Intro 1 Tabs
Better Than Sex Intro Tabs
Broken Glass Syndrome Intro Tabs
I Hate Your Eyes 2 Tabs
I Told You So Intro Tabs
Our Last Dance 1 Tabs
Our Revolution 1 Tabs
Under Fire Tabs
Finished In A Day Ukulele
Sydney 2 Ukulele


Song lyrics



↑ Back to top | Tablatures and chords are parodies/interpretations of the original songs. You may use it for private study, scholarship, research or language learning purposes only
© 2014 AZChords.com Contact us | Privacy policy | DMCA | Add/correct tabs | Request tabs | Top 50 tabs