» » »

Halifax, Giant In The Ring Bass tabs (ver.1)

Artists:  A B C D E F G H I J K L M N O P Q R S T U V W X Y Z # 

Giant In The Ring Bass tabs (ver.1)

Halifax Tabs
Rating:
0/5 (0 votes)
Giant In The Ring lessons Tabs too difficult? Try these video lessons and learn fast
                ______________________________

Halifax - Giant in the Ring
______________________________


tuning: half step down
        D# G# C# F#

-----------------------------------


bass sets in 00:14

VERSE
|------------------|------------------|------------------|------------------|
|------------------|------------------|------------------|------------------|
|-------------11-9-|-------------11-9-|-------------9-11-|------------------|
|-9----------------|-8----------------|-7----------------|-6--------------6/|

|------------------|------------------|------------------|------------------|
|------------------|------------------|------------------|------------------|
|-------------11-9-|-------------11-9-|-------------9-11-|------------------|
|-9----------------|-8----------------|-7----------------|-6----------------|


PRE-CHORUS
|------------------|------------------|
|------------------|------------------|
|------------------|-7-------7/14-----|
|-0----------------|------------------|


CHORUS
|------------------|------------------|------------------|------------------|
|------------------|------------------|------------------|------------------|
|------------------|-4444444444444444-|-2222222222222222-|-0000000022222222-|
|-0000000000000000-|------------------|------------------|------------------|

VERSE (2x)
|------------------|------------------|------------------|------------------|
|------------------|------------------|------------------|------------------|
|------------------|------------------|------------------|------------------|
|-9999999999999999-|-8888888888888888-|-7777777777777777-|-6666666666666666-|

PRE-CHORUS

CHORUS

BREAK

|------------------|------------------|
|------------------|------------------|
|-0~---------------|-2~---------------|
|------------------|------------------|

|------------------|------------------|------------------|------------------|
|------------------|------------------|------------------|------------------|
|-4-4-4-4----------|-2-2-2-2----------|-0-0-0-0----------|-2-2-2-2~-----2-2-|
|------------------|------------------|------------------|------------------|
play this part twice, then slide into chorus

CHORUS
3 times, then

|------------------|------------------|------------------|------------------|
|------------------|------------------|------------------|------------------|
|------------------|-4~---------------|-2~---------------|-0~------2~-------|
|-0~---------------|------------------|------------------|------------------|


finally,
end on

|------------------|
|------------------|
|------------------|
|-0~---------------|


"If you want a battle, just know my record is high - I'm a giant in the ring and I will 
you out like a lie..."
            
Submit corrections

comments powered by Disqus
↑ Back to top | Halifax Bass for Giant In The Ring. Lyrics for acoustic guitar and electric guitar. Tablatures and chords are parodies/interpretations of the original songs. You may use it for private study, scholarship, research or language learning purposes only