» » »

Halifax, Call All Your Reserves Tabs (ver.1)

Artists:  A B C D E F G H I J K L M N O P Q R S T U V W X Y Z # 

Call All Your Reserves Tabs (ver.1)

Halifax Tabs
 Rating:
4/5 (4 votes)
Call All Your  Reserves lessons Tabs too difficult? Try these video lessons and learn fast
1
                -------------------------------------------------------------------------------
                     Call All Your Reserves - Halifax
-------------------------------------------------------------------------------

Tuning: EADGBe(STANDARD)

I love this song, I couldn't find any tabs for it, so I wrote this one myself. Enjoy. 

Intro:
e|---------------------------------------------------------------------------|
B|------5h7h9--9--0-4h5-0-5h7---------5h7h9--9--0-4h5-0-5h7------------------|
G|---------------------------------------------------------------------------|
D|--2------------------------------2-----------------------------------------|
A|--2------------------------------2-----------------------------------------|
E|--0------------------------------0-----------------------------------------|

e|---------------------------------------------------------------|
B|------5h7h9--9--0-4h5-0-5h7---------5h7h9--9-------------------|
G|---------------------------------------------------2-2---------|
D|--2------------------------------2------------2-2--2-2---------|
A|--2------------------------------2------------2-2--0-0---------|
E|--0------------------------------0------------0-0--------------|

Lead:
e|---------------------------------------------------------------------------|
B|--5-5-5-5--7-7-7-7--10-10-10-10--9-9-9-9-7-7-7-7--5-5-5-5-7-7-7-7--5-5-5-5-|
G|---------------------------------------------------------------------------|x4
D|---------------------------------------------------------------------------|
A|---------------------------------------------------------------------------|
E|---------------------------------------------------------------------------|

e|---------------------------------------------------------------------------|
B|-12-10-9-------------------------------------------------------------------|
G|----------11-9-------11----11h13-------------------------------------------|
D|----------------13-14----14------------------------------------------------|
A|---------------------------------------------------------------------------|
E|---------------------------------------------------------------------------|

Verse:
e|---------------------------------------------------------------------------|
B|---------------------------------------------------------------------------|
G|---------------------------------------------------------------------------|
D|--4--6--4 -----------------------------------------------------------------|
A|--7--7--7----------6h7--------7h9------------------------------------------|
E|------------0-0-0-------0-0-0----------------------------------------------|x4

e|---------------------------------------------------------------------------|
B|---------------------------------------------------------------------------|
G|---2------------------2----------------9-9---------------------------------|
D|---2---2---4--7-------2--2--4--7-7-----9-9---------------------------------|
A|---0---2---4--7-------0--2--4--7-7-----7-7---------------------------------|
E|-------0---2--5----------0--2--5-5-----------------------------------------|

Chorus:
e|---------------------------------------------------------------------------|
B|-5-5-5-5--5-5-5-5--7-7-7-7--7-7-7-7--5-7-4-5---4-0-------------------------|
G|---------------------------------------------------------------------------|
D|---------------------------------------------------------------------------|
A|---------------------------------------------------------------------------|
E|---------------------------------------------------------------------------|


e|---------------------------------------------------------------------------|
B|-5-5-5-5--5-5-5-5--9-9-9-7-7-7-5---5-9-7-5--4h5p4-0------------------------|
G|---------------------------------------------------------------------------|
D|---------------------------------------------------------------------------|
A|---------------------------------------------------------------------------|
E|---------------------------------------------------------------------------|

e|---------------------------------------------------------------------------|
B|-5-5-5-5--5-5-5-5--7-7-7-7--7-7-7-7--5-7-4-5---4-0-------------------------|
G|---------------------------------------------------------------------------|
D|---------------------------------------------------------------------------|
A|---------------------------------------------------------------------------|
E|---------------------------------------------------------------------------|

e|---------------------------------------------------------------------------|
B|-5-5-5-5--5-5-5-5--9-9-9-7-7-7-5---5-9-7-5--4h5p4-0------------------------|
G|---------------------------------------------------------------------------|
D|---------------------------------------------------------------------------|
A|---------------------------------------------------------------------------|
E|---------------------------------------------------------------------------|

Verse
e|---------------------------------------------------------------------------|
B|---------------------------------------------------------------------------|
G|---------------------------------------------------------------------------|
D|--4--6--4 -----------------------------------------------------------------|
A|--7--7--7----------6h7--------7h9------------------------------------------|
E|------------0-0-0-------0-0-0----------------------------------------------|x4

e|---------------------------------------------------------------------------|
B|---------------------------------------------------------------------------|
G|---2------------------2----------------9-9---------------------------------|
D|---2---2---4--7-------2--2--4--7-7-----9-9---------------------------------|
A|---0---2---4--7-------0--2--4--7-7-----7-7---------------------------------|
E|-------0---2--5----------0--2--5-5-----------------------------------------|

Chorus:
e|---------------------------------------------------------------------------|
B|-5-5-5-5--5-5-5-5--7-7-7-7--7-7-7-7--5-7-4-5---4-0-------------------------|
G|---------------------------------------------------------------------------|
D|---------------------------------------------------------------------------|
A|---------------------------------------------------------------------------|
E|---------------------------------------------------------------------------|

e|---------------------------------------------------------------------------|
B|-5-5-5-5--5-5-5-5--9-9-9-7-7-7-5---5-9-7-5--4h5p4-0------------------------|
G|---------------------------------------------------------------------------|
D|---------------------------------------------------------------------------|
A|---------------------------------------------------------------------------|
E|---------------------------------------------------------------------------|

e|---------------------------------------------------------------------------|
B|-5-5-5-5--5-5-5-5--7-7-7-7--7-7-7-7--5-7-4-5---4-0-------------------------|
G|---------------------------------------------------------------------------|
D|---------------------------------------------------------------------------|
A|---------------------------------------------------------------------------|
E|---------------------------------------------------------------------------|

e|---------------------------------------------------------------------------|
B|-5-5-5-5--5-5-5-5--9-9-9-7-7-7-5---5-9-7-5--4h5p4-0------------------------|
G|---------------------------------------------------------------------------|
D|---------------------------------------------------------------------------|
A|---------------------------------------------------------------------------|
E|---------------------------------------------------------------------------|

Bridge:
e|---------------------------------------------------------------------------|
B|---------------------------------------------------------------------------|
G|---------------------------------------------------------------------------|
D|------------------4-4-4-4-4-4-4-4------------------------------------------|
A|-2-2-2-2-2-2-2-2--2-2-2-2-2-2-2-2--4-4-4-4-4-4-4-4--7-7-7-7-7-7-7-7--------|
E|-0-0-0-0-0-0-0-0-------------------2-2-2-2-2-2-2-2--5-5-5-5-5-5-5-5--------|x4 

e|---------------------------------------------------------------------------|
G|---------------------------------------------------------------------------|
G|---------------------------------------------------------------------------|
D|---------------------------------------------------------------------------|x4
A|--2-2--2-2--2-2--2-2---22--------------------------------------------------|
E|--0-0--0-0--0-0--0-0---00--------------------------------------------------|

Chorus x2:
e|---------------------------------------------------------------------------|
B|-5-5-5-5--5-5-5-5--7-7-7-7--7-7-7-7--5-7-4-5---4-0-------------------------|
G|---------------------------------------------------------------------------|
D|---------------------------------------------------------------------------|
A|---------------------------------------------------------------------------|
E|---------------------------------------------------------------------------|

e|---------------------------------------------------------------------------|
B|-5-5-5-5--5-5-5-5--9-9-9-7-7-7-5---5-9-7-5--4h5p4-0------------------------|
G|---------------------------------------------------------------------------|
D|---------------------------------------------------------------------------|
A|---------------------------------------------------------------------------|
E|---------------------------------------------------------------------------|

e|---------------------------------------------------------------------------|
B|-5-5-5-5--5-5-5-5--7-7-7-7--7-7-7-7--5-7-4-5---4-0-------------------------|
G|---------------------------------------------------------------------------|
D|---------------------------------------------------------------------------|
A|---------------------------------------------------------------------------|
E|---------------------------------------------------------------------------|

e|---------------------------------------------------------------------------|
B|-5-5-5-5--5-5-5-5--9-9-9-7-7-7-5---5-9-7-5--4h5p4-0------------------------|
G|---------------------------------------------------------------------------|
D|---------------------------------------------------------------------------|
A|---------------------------------------------------------------------------|
E|---------------------------------------------------------------------------|

End with this nice and smoothly: 
e|---------------------------------------------------------------------------|
B|-5--7--10--9--7--5--7--5---------------------------------------------------|
G|---------------------------------------------------------------------------|
D|---------------------------------------------------------------------------|
A|---------------------------------------------------------------------------|
E|---------------------------------------------------------------------------|

That's all, if you found any errors or anything please leave a comment here or email



| /  slide up
| \  slide down
| h  hammer-on
| p  pull-off
| ~  vibrato
| +  harmonic
| x  Mute note
===============================================================================
            
Submit corrections

comments powered by Disqus
↑ Back to top | Halifax Tabs for Call All Your Reserves. Lyrics for acoustic guitar and electric guitar. 1 Tablatures and chords are parodies/interpretations of the original songs. You may use it for private study, scholarship, research or language learning purposes only