>
 >
Broken Glass Syndrome 1

Broken Glass Syndrome 1 Guitar Tabs

Halifax - Broken Glass Syndrome 1 chords, tabs, tablatures, lyrics

Guitar lessons | Add/correct | Request | Top 50 tabs Artists:  A B C D E F G H I J K L M N O P Q R S T U V W X Y Z 0-9

Broken Glass Syndrome 1 Guitar Tabs – Halifax

CD, Sheet music, Poster

Do you like Broken Glass Syndrome 1? Share with your friends now
TabsTabs v2
-------------------------------------------------------------------------------
                             Broken Glass Syndrome - Halifax
-------------------------------------------------------------------------------

As I play it on one guitar. Feel free to add what you think the second guitar
part is into the comments, and I'll update the tab! Also, if you have any ideas
on guitar parts for the bit where I've written "Bass Interlude", or what the
piano is then add it to the comments and I'll update the tab, I wasn't to sure!
I love this song so I've done my best and written the lyrics in time with the
music as best I could to try and make it easier! Hope you like!

Tuning: Half-step down (Eb,Ab,Db,Gb,Bb,eb)

Intro
   |-------------- x2 ---------------|
eb|---------------------------------------------------------------------------|
Bb|---5--------5--------5--------5--------------------------------------------|
Gb|-----4--------4--------4--------4------------------------------------------|
Db|---------------------------------------------------------------------------|
Ab|4------4-7------7----------------------------------------------------------|
Eb|------------------2------2-4------4----------------------------------------|


Intro part 2.
When playing this bit before the 2nd verse don't repeat it! Just played once!
eb||--------------------------------------------------------------------------|
Bb||o-------------------------------------------------------------------------|
Gb||-9-9-9--9-9-9--9-9-9--9-9-9--8-8-8--9-9-9--8-8-8--x-x-x--6--6--6-6-6--9--99
Db||-7-7-7--7-7-7--7-7-7--7-7-7--x-x-x--x-x-x--x-x-x--x-x-x--6--6--6-6-6--9--99
Ab||o7-7-7--7-7-7--7-7-7--7-7-7--6-6-6--7-7-7--6-6-6--x-x-x--4--4--4-4-4--7--77
Eb||-5-5-5--5-5-5--5-5-5--5-5-5-----------------------x-x-x-------------------|
                                                                                       
eb|--------------------------------||-----------------------------------------|
Bb|-------------------------------o||-----------------------------------------|
Gb|9-9-9---------------------------||--6------------------------------4--6----|
Db|9-9-9--4--4--4-4-4--6--6--6-6-6-||--6--6-6-6-6-6-6-6-6-6-6-6-6-6-6-4--6----|
Ab|7-7-7--4--4--4-4-4--6--6--6-6-6o||--4--4-4-4-4-4-4-4-4-4-4-4-4-4-4-2--4----|
Eb|-------2--2--2-2-2--4--4--4-4-4-||-----------------------------------------|
                                          PM------------------------|
                                                                   1."I  did
                                                                   2. You did 

Verse

eb|---------------------------------------------------------------------------|
Bb|---------------------------------------------------------------------------|
Gb|---------------------------------------------------------------------------|
Db|6-6-6-6-6-6-6-6-6-6-6-6-6-6-9--7------------------------------9--7---------|
Ab|4-4-4-4-4-4-4-4-4-4-4-4-4-4-9--7--7-7-7-7-7-7-7-7-7-7-7-7-7-7-9--7--7-7-7-7|
Eb|----------------------------7--5--5-5-5-5-5-5-5-5-5-5-5-5-5-5-7--5--5-5-5-5|
   PM------------------------|       PM------------------------|       PM-----
   
         everthing  you did  to  me to you.                   But  I'm  out  of  ammunition
         everything to me I  did  to you                                 This is the last  


eb|---------------------------------------------------------------------------|
Bb|---------------------------------------------------------------------------|
Gb|-----------------------6------------------------------4--6-----------------|
Db|--------------------9--6--6-6-6-6-6-6-6-6-6-6-6-6-6-6-4--6--6-6-6-6-6-6-6-6|
Ab|7-7-7-7-7-7-7-7-7-7-9--4--4-4-4-4-4-4-4-4-4-4-4-4-4-4-2--4--4-4-4-4-4-4-4-4|
Eb|5-5-5-5-5-5-5-5-5-5-7------------------------------------------------------|
   ------------------|       PM------------------------|     PM---------------

       So I'll take these words and  fire  them into         your chest, find a new place
song that you're getting 'cause we're through. 
                                 The only thing that's perfect are the states we put between

eb|---------------------------------------------------------------------------|
Bb|---------------------------------------------------------------------------|
Gb|---------------------------------------------------------------------------|
Db|6-6-6-6-6-6-9--7------------------------------9--7-------------------------|
Ab|4-4-4-4-4-4-9--7--7-7-7-7-7-7-7-7-7-7-7-7-7-7-9--7--7-7-7-7-7-7-7-7-7-7-7-7|
Eb|------------7--5--5-5-5-5-5-5-5-5-5-5-5-5-5-5-7--5--5-5-5-5-5-5-5-5-5-5-5-5|
   ----------|       PM------------------------|       PM---------------------

      for them to rest, seize up your insides tearing your flesh,          open up and let
  Because you know I'm always writing you postcards just saying how good it feels not to have
us      

        |---------------- x2 -----------------|
eb|---------------------------------------------------------------------------|
Bb|---------------------------------------------------------------------------|
Gb|-----------------------------------------9-9-------------------------------|
Db|-----6-6-6-------------------------------7-7-------------------------------|
Ab|7-7--4-4-4-9-9-9-7-7-7-7-7-7-7-7-7-7-7-7-7-7-------------------------------|
Eb|5-5--------7-7-7-5-5-5-5-5-5-5-5-5-5-5-5-5-5-------------------------------|
   --|  PM--------------------------------|
   
   them in.                              I'll write your
   you here.                               I'll write your

Chorus

eb||--------------------------------------------------------------------------|
Bb||o-------------------------------------------------------------------------|
Gb||-6--6--6-6-6--6--6-6-6-6-6-6----------------------------------------------|
Db||-6--6--6-6-6--6--6-6-6-6-6-6--2--2--2-2-2--2--2-2-2-2-2-2--4--4--4-4-4--4-|
Ab||o4--4--4-4-4--4--4-4-4-4-4-4--2--2--2-2-2--2--2-2-2-2-2-2--4--4--4-4-4--4-|
Eb||------------------------------0--0--0-0-0--0--0-0-0-0-0-0--2--2--2-2-2--2-|

    name across the wall, with all the blood that spills from my heart. Break my limbs and
    reach across the floor, feel for this pile of broken glass. I'll hand you the sharpest

eb|--------------------------------------------||
Bb|-------------------------------------------o||
Gb|--------------------------------------------||
Db|-4-4-4-4-4--7-7-7-7-7-7-7-7-9-9-9-9-9-9-9-9-||
Ab|-4-4-4-4-4--7-7-7-7-7-7-7-7-9-9-9-9-9-9-9-9o||
Eb|-2-2-2-2-2--5-5-5-5-5-5-5-5-7-7-7-7-7-7-7-7-||
 
   and stretch my skin,  until   my     hands     can
       one       to  place  it  right  in   my   back.

Next go back and play from Intro Part 2 all the way through to the chorus.

Interlude

eb|---------------------------------------------------------------------------|
Bb|---------------------------------------------------------------------------|
Gb|6---------------------8--9--8--6-------------------------------------------|
Db|6---------------------x--x--x--x-------------------------------------------|
Ab|4---------------------6--7--6--4-------------------------------------------|
Eb|---------------------------------------------------------------------------|
   |--------------------          |----------------


Bass Interlude??

So far so good (It takes a miracle)
You're only half as good as you said (For someone to hear me in this well)
You're halfway decent. x2


                     x7
eb||------------------||------------------------------------------------------|
Bb||o----------------o||------------------------------------------------------|
Gb||------6--4h6p4h6--||------------------------------------------------------|
Db||------------------||------------------------------------------------------|
Ab||o-4-4------------o||------------------------------------------------------|
Eb||------------------||-P.S-x\\\\\\\\\\\-------------------------------------|
   PM|                       I'll write your

So far so good (It takes a miracle)
You're only half as good as you said (For someone to hear me in this well)
You're halfway decent.

Repeat the chorus twice. The first time I think it's got a half-time feel to it
so it's like half the tempo if you get me, something like that, but the second
time it's back to normal speed, still all the same chords!

Ending

eb|---------------------------------------------------------------------------|
Bb|---------------------------------------------------------------------------|
Gb|--9-9-9--9-9-9--9-9-9--9-9-9--8-8-8--9-9-9--8-8-8--11h13p11----------------|
Db|--7-7-7--7-7-7--7-7-7--7-7-7--x-x-x--x-x-x--x-x-x------------11\-----------|
Ab|--7-7-7--7-7-7--7-7-7--7-7-7--6-6-6--7-7-7--6-6-6------------11\-----------|
Eb|--5-5-5--5-5-5--5-5-5--5-5-5----------------------------------9\-----------|

| ||o o||
| ||   || Repeat marks
| ||o o||
| /  slide up
| \  slide down
| h  hammer-on
| p  pull-off
| x  Mute note
| P.s. Pick Scratch
| |-- Hold/sustain
| PM-| Palm Mute
===============================================================================





Comments


Popular Halifax tabs & chords
Our Last Dance Bass Tabs
Finished In A Day Chords
Broken Glass Syndrome Intro Tabs
Call All Your Reserves Tabs
Our Revolution Tabs
Our Revolution 1 Tabs
Such A Terrible Trend Tabs
Sydney 1 Tabs
Sydney 3 Tabs
Finished In A Day Ukulele


Song lyrics



↑ Back to top | Tablatures and chords are parodies/interpretations of the original songs. You may use it for private study, scholarship, research or language learning purposes only
© 2014 AZChords.com Contact us | Privacy policy | DMCA | Add/correct tabs | Request tabs | Top 50 tabs