» » »

Broken Glass Syndrome Tabs (ver.2)

Artists:  A B C D E F G H I J K L M N O P Q R S T U V W X Y Z # 

Broken Glass Syndrome Tabs (ver.2)

Halifax
Rating:
5/5 (1 vote)

Hard to play? Try these video lessons and learn fast.
                -----------------------------------------------------------------------------
-----------------------------------------------------------------------------


Tuning:Standard

Intro pt.1         Intro pt.2
e|--------------|-----------------------------------|
B|--------------|-----------------------------------|
G|--8----(8x)---|-888-888-888-888--777-888-777-777--|
D|----8---------|-xxx-xxx-xxx-xxx--xxx-xxx-xxx-xxx--|
A|--------------|-666-666-666-666--888-888-888-888--|
E|--------------|-444-444-444-444--666-666-666-666--|
  
Intro pt. 2 Cont'd
e|--------------------------------------------|
B|--------------------------------------------|
G|--55555-1212121212-88888-777-101010---------|
D|--xxxxx-x-x-x-x-x--xxxxx-xxx-x-x-x--(2x)----|
A|--33333-1010101010-66666-555-8-8-8----------|
E|--------------------------------------------|
  
 Verse
e|--------------------------------------------------------------------------|
B|-----------------------------------------------------------------(2x)-----|
G|--------------------------------------------------------------------------|
D|--8-10101010101010101010-8-10101010101010101010-10-6666666666-10-666666666|
A|--8-10101010101010101010-8-10101010101010101010-10-6666666666-10-666666666|
E|--6-8-8-8-8-8-8-8-8-8-8--6-8-8-8-8-8-8-8-8-8-8--8--4444444444-8-4444444444|
  pm  . . . . . . . . . .    . . . . . . . . . .     ..........   ..........
   
 Pre-chorus
e|-----------------------------|
B|-----------------------------|
G|-----------------------------|
D|--101010-888-666666666-(2x)--|
A|--101010-888-666666666-------|
E|--8-8-8--666-444444444-------|
 pm . . .  ... .........

Chorus (figure out the strumming it's pretty easy)
e|------------------------ ------ ----- ----- ----- ----- ------------|
B|------------------------ ------ ----- ----- ----- ----- ------------|
G|-55555555---7-7---8-8--- --10-- --8-- --8-- --7-- --8-- --10--(2x)--|
D|-xxxxxxxx---x-x---x-x--- ---x-- --x-- --x-- --x-- --x-- ---x--------|
A|-33333333---5-5---6-6--- ---8-- --6-- --6-- --5-- --6-- ---8--------| 
E|------------------------ ------ ----- ----- ----- ----- ------------| 

  Intro pt.2 (the whole thing)

  Verse 2x

  Pre-Chorus 2x

  Chorus 2x

  Bridge
e|--------------------------------------------------------------------------|
B|--------------------------------------------------------------------------|
G|--------------------------------------------------------------------------|
D|--6-5---8---6-5---8----6-5---8---6-5-----(3x)--10~--8~--6~--6~--PICKSLIDE-|
A|------6---------6----------6---------6-3-------10~--8~--6~--6~------------|
E|------------------------------------------------8~--6~--4~--4~------------|

 Chorus 2x slow

 Chorus 2x Normal

 Intro pt.2 (the first half only)

 Ending
e|----------------|
B|----------------|
G|--10/12--8\\\\\-|
D|---x--x--x\\\\\-|
A|---8-10--6\\\\\-|
E|----------------|

So that's it. Keep in mind thats only for one guitar. Thanks to the unknown submitter
who tabbed it out. i made some changes becaue there were a bunch of parts that were
slightly off. Peace out.



| /  slide up
| \  slide down
| h  hammer-on
| p  pull-off
| ~  vibrato
| +  harmonic
| x  Mute note
=============================================================================
            
Hard to play? Try these video lessons and learn fast. | Correct




comments powered by Disqus
↑ Back to top | Tablatures and chords are parodies/interpretations of the original songs. You may use it for private study, scholarship, research or language learning purposes only