>
 >
Better Than SexIntro

Better Than SexIntro Guitar Tabs

Halifax - Better Than SexIntro chords, tabs, tablatures, lyrics

Guitar lessons | Add/correct | Request | Top 50 tabs Artists:  A B C D E F G H I J K L M N O P Q R S T U V W X Y Z 0-9

Better Than SexIntro Guitar Tabs – Halifax

CD, Sheet music, Poster

Do you like Better Than SexIntro? Share with your friends now
Tabs
The other tab on here was really off, so I learned this by ear. I am like 98% it's 100% 
correct. This is the intro and part of the verse. I am working on the rest, but here's 
this for now.


Left Channel Guitar

      E  E  E  E  S  S  E  E  E     E  E  E  E  S  S  E  E  E
D#||-----------------------------|-----------------------------|
A#||-----------------------------|-----------------------------|
F#||--6--6-----------------------|-----------------------------|
C#||--6--6-----------------------|--7--7-----------------------|
G#||--4--4-----6--6h-7p-6--------|--7--7-----6--6h-7p-6--------|
D#||-----------------------7--9--|--5--5-----------------7--9--|


  E  E  E  E  S  S  E  E  E     Q    Q    Q     Q
-----------------------------|-----------------------|
-----------------------------|-----------------------|
-----------------------------|-----------------------|
--9--9-----------------------|--6----7----9----11----|
--9--9-----6--6h-7p-6--------|--6----7----9----11----|
--7--7-----------------7--9--|--4----5----7-----9----|


  E  E  E  E  S  S  E  E  E     E  E  E  E  S  S  E  E  E
-----------------------------|-----------------------------|
-----------------------------|-----------------------------|
--6--6-----------------------|-----------------------------|
--6--6-----------------------|--7--7-----------------------|
--4--4-----6--6h-7p-6--------|--7--7-----6--6h-7p-6--------|
-----------------------7--9--|--5--5-----------------7--9--|


  E  E  E  E  S  S  E  E  E     Q    Q    Q     Q       Q    Q    Q     Q
-----------------------------|-----------------------|-----------------------|
-----------------------------|-----------------------|-----------------------|
-----------------------------|-----------------------|-----------------------|
--9--9-----------------------|--6----7----9----11----|--6----7----9----11----|
--9--9-----6--6h-7p-6--------|--6----7----9----11----|--6----7----9----11----|
--7--7-----------------7--9--|--4----5----7-----9----|--4----5----7-----9----|


        PM PM PM PM PM PM            PM    PM
   Q    E  E  E  E  E  E     E    E  E  E  E   E    E    E
--------------------------|---------------------------------|
--------------------------|---------------------------------|
--------------------------|---------------------------------|
--11----------------------|---------------------------------|
--11----------------------|-------------9-------------------|
---9----9--9--9--9--9--9--|--9h--11--9-----9--11h--12p--11--|


       PM PM PM PM PM PM           PM        PM
  Q    E  E  E  E  E  E     E   E  E  E   E  E  E   E
-------------------------|-----------------------------|
-------------------------|-----------------------------|
-------------------------|-----------------------------|
--9----------------------|-----------------------------|
--9----------------------|--9p--6-----7p--6-----6h--7--|
--7----7--7--7--7--7--7--|---------7---------7---------|


       PM PM PM PM PM PM           PM    PM
  Q    E  E  E  E  E  E     E   E  E  E  E  E  E   E
-------------------------|----------------------------|
-------------------------|----------------------------|
-------------------------|----------------------------|
--7----------------------|----------------------------|
--7----------------------|--6h--7-----9-----7--7p--6--|
--5----5--5--5--5--5--5--|---------5-----5------------|


       PM PM PM PM PM PM
  Q    E  E  E  E  E  E      E  E   E  E  E   E  E   E
-------------------------|------------------------------||
-------------------------|------------------------------||
-------------------------|------------------------------||
--9----------------------|--10-----10-------------------||
--9----------------------|--10-----10-----9p--7--6h--7--||
--7----7--7--7--7--7--7--|---8------8-------------------||



Right Channel Guitar

      E  E  E  E  S  S  E  E  E     E  E  E  E  S  S  E  E  E
D#||-----------------------------|-----------------------------|
A#||-----------------------------|-----------------------------|
F#||--6--6-----------------------|--6--6-----------------------|
C#||-----------4--4h-6p-4--------|-----------4--4h-6p-4--------|
G#||--4--4-----------------6--7--|--4--4-----------------6--7--|
D#||-----------------------------|-----------------------------|


  E  E  E  E  S  S  E  E  E     Q    Q    Q    Q
-----------------------------|----------------------|
-----------------------------|----------------------|
--8--8-----------------------|--5----6----8----9----|
-----------4--4h-6p-4--------|----------------------|
--6--6-----------------6--7--|--3----4----6----7----|
-----------------------------|----------------------|


  E  E  E  E  S  S  E  E  E     E  E  E  E  S  S  E  E  E
-----------------------------|-----------------------------|
-----------------------------|-----------------------------|
--6--6-----------------------|--6--6-----------------------|
-----------4--4h-6p-4--------|-----------4--4h-6p-4--------|
--4--4-----------------6--7--|--4--4-----------------6--7--|
-----------------------------|-----------------------------|


  E  E  E  E  S  S  E  E  E     Q    Q    Q    Q       Q    Q    Q     Q
-----------------------------|----------------------|-----------------------|
-----------------------------|----------------------|-----------------------|
--8--8-----------------------|--5----6----8----9----|--6----8----9----11----|
-----------4--4h-6p-4--------|----------------------|-----------------------|
--6--6-----------------6--7--|--3----4----6----7----|--4----6----7-----9----|
-----------------------------|----------------------|-----------------------|


       PM PM PM PM PM PM           PM    PM PM
  Q    E  E  E  E  E  E     E   E  E  E  E  E  E   E
-------------------------|----------------------------|
-------------------------|----------------------------|
--6----------------------|----------------------------|
--6----------------------|--4h--6-----7--------6p--4--|
--4----4--4--4--4--4--4--|---------4-----4--4---------|
-------------------------|----------------------------|


       PM PM PM PM PM PM           PM        PM
  Q    E  E  E  E  E  E     E   E  E  E   E  E  E   E
-------------------------|-----------------------------|
-------------------------|-----------------------------|
-------------------------|-----------------------------|
--9----------------------|--7p--6-----6p--4-----4h--6--|
--9----------------------|-----------------------------|
--7----7--7--7--7--7--7--|---------7---------7---------|


       PM PM PM PM PM PM           PM
  Q    E  E  E  E  E  E     E   E  E  E  E  E  E   E
-------------------------|----------------------------|
-------------------------|----------------------------|
-------------------------|----------------------------|
--7----------------------|--4h--6-----7--------6p--4--|
--7----------------------|----------------------------|
--5----5--5--5--5--5--5--|---------5-----5--5---------|


       PM PM PM PM PM PM
  Q    E  E  E  E  E  E      E  E   E  E  E   E  E   E
-------------------------|------------------------------||
-------------------------|------------------------------||
-------------------------|------------------------------||
--9----------------------|--10-----10-------------------||
--9----------------------|--10-----10-----6p--4--2h--4--||
--7----7--7--7--7--7--7--|---8------8-------------------||




Duration Legend
---------------
W - whole
H - half
Q - quarter
E - 8th
S - 16th
T - 32nd
X - 64th
. - note dotted
|-n-|  - n-tuplets


Tablature Legend
----------------
L - tied note
x - dead note
g - grace note
(n) - ghost note
> - accentuded note
NH - natural harmonic
AH - artificial harmonic
TH - tapped harmonic
SH - semi harmonic
PH - pitch harmonic
h - hammer on
p - pull off
b - bend
br - bendRelease
pb - preBend
pbr - preBendRelease
brb - bendReleaseBend
\n/ - tremolo bar dip
\n - tremolo bar dive
-/n - tremolo bar Release up
/n\ - tremolo bar inverted dip
/n - tremolo bar return
-\n - tremolo bar Release down
S - shift slide
s - legato slide
/ -  slide into from below or out of upwards
\ -  slide into from above or out of downwards
~ - vibrato
W - wide vibrato
tr - trill
TP - tremolo picking
T - tapping
S - slap
P - pop
< - fade in
^ - brush up
v - brush down





Comments


Popular Halifax tabs & chords
Sydney Chords
Sydney 2 Chords
Anthem For Tonight Intro Tabs
Finished In A Day Tabs
I Hate Your Eyes 2 Tabs
Nightmare Tabs
Our Revolution Tabs
Such A Terrible Trend Intro Tabs
Ten Fingers Isn't Quite Enough Tabs
Chaos Ukulele


Song lyrics



↑ Back to top | Tablatures and chords are parodies/interpretations of the original songs. You may use it for private study, scholarship, research or language learning purposes only
© 2014 AZChords.com Contact us | Privacy policy | DMCA | Add/correct tabs | Request tabs | Top 50 tabs