» » »

Better Than Sex Tabs (ver.1)

Artists:  A B C D E F G H I J K L M N O P Q R S T U V W X Y Z # 

Better Than Sex Tabs (ver.1)

Halifax
Rating:
5/5 (1 vote)

Hard to play? Try these video lessons and learn fast.
                (Intro)
     E  E  E  E  S  S  E  E  E     E  E  E  E  S  S  E  E  E   
E||-----------------------------|-----------------------------|
B||-----------------------------|-----------------------------|
G||-----------------------------|-----------------------------|
D||--6--6-----3--3h-5p-3--1--3--|--5--5-----3--3h-5p-3--1--3--|
A||--6--6-----------------------|--5--5-----------------------|
D||--6--6-----------------------|--5--5-----------------------|


  E  E  E  E  S  S  E  E  E     Q    Q    Q    Q     
-----------------------------|----------------------|
-----------------------------|----------------------|
-----------------------------|----------------------|
--6--6-----3--3h-5p-3--1--3--|--2----3----5----6----|
--6--6-----------------------|--2----3----5----6----|
--6--6-----------------------|--2----3----5----6----|


  E  E  E  E  S  S  E  E  E     E  E  E  E  S  S  E  E  E   
-----------------------------|-----------------------------|
-----------------------------|-----------------------------|
-----------------------------|-----------------------------|
--6--6-----3--3h-5p-3--1--3--|--5--5-----3--3h-5p-3--1--3--|
--6--6-----------------------|--5--5-----------------------|
--6--6-----------------------|--5--5-----------------------|


  E  E  E  E  S  S  E  E  E     Q    Q    Q    Q       Q    Q    Q    Q     
-----------------------------|----------------------|----------------------|
-----------------------------|----------------------|----------------------|
-----------------------------|----------------------|----------------------|
--6--6-----3--3h-5p-3--1--3--|--2----3----5----6----|--2----3----5----8----|
--6--6-----------------------|--2----3----5----6----|--2----3----5----8----|
--6--6-----------------------|--2----3----5----6----|--2----3----5----8----|

     E  E  E  E  S  S  E  E  E     E  E  E  E  S  S  E  E  E   
E||-----------------------------|-----------------------------|
B||-----------------------------|-----------------------------|
G||--5--5-----------------------|--4--4-----------------------|
D||--x--x-----3--3h-5p-3--1--3--|--x--x-----3--3h-5p-3--1--3--|
A||--3--3-----------------------|--2--2-----------------------|
D||-----------------------------|-----------------------------|


  E  E  E  E  S  S  E  E  E     Q    Q    Q    Q     
-----------------------------|----------------------|
-----------------------------|----------------------|
--5--5-----------------------|--4----5----7----8----|
--x--x-----3--3h-5p-3--1--3--|--x----x----x----x----|
--3--3-----------------------|--2----3----5----6----|
-----------------------------|----------------------|


  E  E  E  E  S  S  E  E  E     E  E  E  E  S  S  E  E  E   
-----------------------------|-----------------------------|
-----------------------------|-----------------------------|
--5--5-----------------------|--4--4-----------------------|
--x--x-----3--3h-5p-3--1--3--|--x--x-----3--3h-5p-3--1--3--|
--3--3-----------------------|--2--2-----------------------|
-----------------------------|-----------------------------|


  E  E  E  E  S  S  E  E  E     Q    Q    Q    Q       Q    Q    Q     Q     
-----------------------------|----------------------|-----------------------|
-----------------------------|----------------------|-----------------------|
--5--5-----------------------|--4----5----7----8----|--4----5----7----10----|
--x--x-----3--3h-5p-3--1--3--|--x----x----x----x----|--x----x----x-----x----|
--3--3-----------------------|--2----3----5----6----|--2----3----5-----8----|
-----------------------------|----------------------|-----------------------|
            
Hard to play? Try these video lessons and learn fast. | Correct




comments powered by Disqus
↑ Back to top | Tablatures and chords are parodies/interpretations of the original songs. You may use it for private study, scholarship, research or language learning purposes only