» » »

Anthem For Tonight Tabs (ver.2)

Artists:  A B C D E F G H I J K L M N O P Q R S T U V W X Y Z # 

Anthem For Tonight Tabs (ver.2)

Halifax
Rating:
3/5 (2 votes)

Hard to play? Try these video lessons and learn fast.
                (Intro)
Slide-/


I tabbbed this cuz i was bored.listen to the song to figure out the rhythm and strumming
e----------------------------------------|
B----------------------------------------|
G----------------------------------------|
D-0-3-10-8/10-3-10-8/10-3-8/10-3---------|
A-0-3-10-8/10-3-10-8/10-3-8/10-3---------|
D-0-3-10-8/10-3-10-8/10-3-8/10-3---------|


e-----------------------------------------|
B-----------------------------------------|
G-----------------------------------------|
D-0-3-10-8/10-3-10-8/10-3-8/10-3----------|
A-0-3-10-8/10-3-10-8/10-3-8/10-3-14-12-14-|
D-0-3-10-8/10-3-10-8/10-3-8/10-3-12-10-12-|
            
Hard to play? Try these video lessons and learn fast. | Correct




comments powered by Disqus
↑ Back to top | Tablatures and chords are parodies/interpretations of the original songs. You may use it for private study, scholarship, research or language learning purposes only