» » »

Halford, The One You Love To Hate Tabs (ver.1)

Artists:  A B C D E F G H I J K L M N O P Q R S T U V W X Y Z # 

The One You Love To Hate Tabs (ver.1)

Halford Tabs
Rating:
5/5 (2 votes)
The One You Love To Hate lessons Tabs too difficult? Try these video lessons and learn fast
                Halford
The One You Love To Hate                                                       

                                            
E||----------------------------------|---------------------------------|
B||----------------------------------|---------------------------------|
G||----------------------------------|---------------------------------|
D||------7-----7-----5-----8-----5-7-|------7-----7-----5-----8-----5--|
A||------5-----5-----3-----6-----3-5-|------5-----5-----3-----6-----3--|
D||--0-0---0-0---0-0---0-0---0-0-----|--0-0---0-0---0-0---0-0---0-0----|


                                                                     
----------------------------------|---------------------------------|
----------------------------------|---------------------------------|
----------------------------------|---------------------------------|
------7-----7-----5-----8-----5-7-|------7-----7-----5-----8-----5--|
------5-----5-----3-----6-----3-5-|------5-----5-----3-----6-----3--|
--0-0---0-0---0-0---0-0---0-0-----|--0-0---0-0---0-0---0-0---0-0----|


                                                                     
----------------------------------|---------------------------------|
----------------------------------|---------------------------------|
----------------------------------|---------------------------------|
------7-----7-----5-----8-----5-7-|------7-----7-----5-----8-----5--|
------5-----5-----3-----6-----3-5-|------5-----5-----3-----6-----3--|
--0-0---0-0---0-0---0-0---0-0-----|--0-0---0-0---0-0---0-0---0-0----|


                                                                     
----------------------------------|---------------------------------|
----------------------------------|---------------------------------|
----------------------------------|---------------------------------|
------7-----7-----5-----8-----5-7-|------7-----7-----5-----8-----5--|
------5-----5-----3-----6-----3-5-|------5-----5-----3-----6-----3--|
--0-0---0-0---0-0---0-0---0-0-----|--0-0---0-0---0-0---0-0---0-0----|


                                                                  
-----------------------------|-----------------------------------|
-----------------------------|-----------------------------------|
--5/7-----10/7-----5/7-------|--5/7-----10/7-----3-3-3-3-5-5-5-5-|
--5/7-----10/7-----5/7-------|--5/7-----10/7-----3-3-3-3-5-5-5-5-|
--3/5-----8/-5-----3/5-------|--3/5-----8/-5-----1-1-1-1-3-3-3-3-|
------0-0------0-0-----------|------0-0------0-0-----------------|


                                                                  
-----------------------------|-----------------------------------|
-----------------------------|-----------------------------------|
--5/7-----10/7-----5/7-------|--5/7-----10/7-----2-2-2-----------|
--5/7-----10/7-----5/7-------|--5/7-----10/7-----------3-3-3-5-5-|
--3/5-----8/-5-----3/5-------|--3/5-----8/-5---------------------|
------0-0------0-0-----------|------0-0------0-0-----------------|


                                                                  
-----------------------------|-----------------------------------|
-----------------------------|-----------------------------------|
--5/7-----10/7-----5/7-------|--5/7-----10/7-----3-3-3-3-5-5-5-5-|
--5/7-----10/7-----5/7-------|--5/7-----10/7-----3-3-3-3-5-5-5-5-|
--3/5-----8/-5-----3/5-------|--3/5-----8/-5-----1-1-1-1-3-3-3-3-|
------0-0------0-0-----------|------0-0------0-0-----------------|


                                                                  
-----------------------------|-----------------------------------|
-----------------------------|-----------------------------------|
--5/7-----10/7-----5/7-------|--5/7-----10/7-----2-2-2-----------|
--5/7-----10/7-----5/7-------|--5/7-----10/7-----------3-3-3-5-5-|
--3/5-----8/-5-----3/5-------|--3/5-----8/-5---------------------|
------0-0------0-0-----------|------0-0------0-0-----------------|


                                                                      
----------------------------------|----------------------------------|
----------------------------------|----------------------------------|
----------------------------------|----------------------------------|
----------------------------------|----------------------------------|
----------------------------------|----------------------------------|
--0-0-0-0-0-0-0-0-3-3-3-5-3-3-5h6-|--0-0-0-0-0-0-0-0-3-3-3-5-3-3-5h6-|


                                                                      
----------------------------------|----------------------------------|
----------------------------------|----------------------------------|
----------------------------------|----------------------------------|
----------------------------------|----------------------------------|
----------------------------------|------------------3-3-3-----------|
--0-0-0-0-0-0-0-0-3-3-3-5-3-3-5h6-|--0-0-0-0-0-0-0-0-------5-5-3-5h6-|


                                                                      
----------------------------------|----------------------------------|
----------------------------------|----------------------------------|
----------------------------------|----------------------------------|
----------------------------------|----------------------------------|
----------------------------------|----------------------------------|
--0-0-0-0-0-0-0-0-3-3-3-5-3-3-5h6-|--0-0-0-0-0-0-0-0-3-3-3-5-3-3-5h6-|


                                                                      
----------------------------------|----------------------------------|
----------------------------------|----------------------------------|
----------------------------------|----------------------------------|
----------------------------------|----------------------------------|
----------------------------------|------------------3-3-3-----------|
--0-0-0-0-0-0-0-0-3-3-3-5-3-3-5h6-|--0-0-0-0-0-0-0-0-------5-5-3-5h6-|


                                                                  
-----------------------------|-----------------------------------|
-----------------------------|-----------------------------------|
--5/7-----10/7-----5/7-------|--5/7-----10/7-----3-3-3-3-5-5-5-5-|
--5/7-----10/7-----5/7-------|--5/7-----10/7-----3-3-3-3-5-5-5-5-|
--3/5-----8/-5-----3/5-------|--3/5-----8/-5-----1-1-1-1-3-3-3-3-|
------0-0------0-0-----------|------0-0------0-0-----------------|


                                                                  
-----------------------------|-----------------------------------|
-----------------------------|-----------------------------------|
--5/7-----10/7-----5/7-------|--5/7-----10/7-----2-2-2-----------|
--5/7-----10/7-----5/7-------|--5/7-----10/7-----------3-3-3-5-5-|
--3/5-----8/-5-----3/5-------|--3/5-----8/-5---------------------|
------0-0------0-0-----------|------0-0------0-0-----------------|


                                                                  
-----------------------------|-----------------------------------|
-----------------------------|-----------------------------------|
--5/7-----10/7-----5/7-------|--5/7-----10/7-----3-3-3-3-5-5-5-5-|
--5/7-----10/7-----5/7-------|--5/7-----10/7-----3-3-3-3-5-5-5-5-|
--3/5-----8/-5-----3/5-------|--3/5-----8/-5-----1-1-1-1-3-3-3-3-|
------0-0------0-0-----------|------0-0------0-0-----------------|


                                                                  
-----------------------------|-----------------------------------|
-----------------------------|-----------------------------------|
--5/7-----10/7-----5/7-------|--5/7-----10/7-----2-2-2-----------|
--5/7-----10/7-----5/7-------|--5/7-----10/7-----------3-3-3-5-5-|
--3/5-----8/-5-----3/5-------|--3/5-----8/-5---------------------|
------0-0------0-0-----------|------0-0------0-0-----------------|


                                                                      
----------------------------------|----------------------------------|
----------------------------------|----------------------------------|
----------------------------------|----------------------------------|
----------------------------------|----------------------------------|
----------------------------------|----------------------------------|
--0-0-0-0-0-0-0-0-3-3-3-5-3-3-5h6-|--0-0-0-0-0-0-0-0-3-3-3-5-3-3-5h6-|


                                                                      
----------------------------------|----------------------------------|
----------------------------------|----------------------------------|
----------------------------------|----------------------------------|
----------------------------------|----------------------------------|
----------------------------------|------------------3-3-3-----------|
--0-0-0-0-0-0-0-0-3-3-3-5-3-3-5h6-|--0-0-0-0-0-0-0-0-------5-5-3-5h6-|


                                                                      
----------------------------------|----------------------------------|
----------------------------------|----------------------------------|
----------------------------------|----------------------------------|
----------------------------------|----------------------------------|
----------------------------------|----------------------------------|
--0-0-0-0-0-0-0-0-3-3-3-5-3-3-5h6-|--0-0-0-0-0-0-0-0-3-3-3-5-3-3-5h6-|


                                                                             
----------------------------------|----------------------------------|------|
----------------------------------|----------------------------------|------|
----------------------------------|----------------------------------|------|
----------------------------------|----------------------------------|------|
----------------------------------|------------------3-3-3-----------|------|
--0-0-0-0-0-0-0-0-3-3-3-5-3-3-5h6-|--0-0-0-0-0-0-0-0-------5-5-3-5h6-|------|


                                                                
-------------------|----------------------|--------------------|
--8~---------------|----------8---10---8--|--7~-----------4~---|
-------------------|----------------------|--------------------|
-------------------|----------------------|--------------------|
-------------------|----------------------|--------------------|
-------------------|----------------------|--------------------|


                                                               
-------------------|-------------------|----------------------|
--3~---------------|--8~---------------|----------8---10---8--|
-------------------|-------------------|----------------------|
-------------------|-------------------|----------------------|
-------------------|-------------------|----------------------|
-------------------|-------------------|----------------------|


                                                                            
--------------------|-------------------|----------------------------------|
--7~-----------4~---|--3~---------------|----------------------------------|
--------------------|-------------------|----------------------------------|
--------------------|-------------------|----------------------------------|
--------------------|-------------------|----------------------------------|
--------------------|-------------------|--0-0-0-0-0-0-0-0-3-3-3-5-3-3-5h6-|


                                                                      
----------------------------------|----------------------------------|
----------------------------------|----------------------------------|
----------------------------------|----------------------------------|
----------------------------------|----------------------------------|
----------------------------------|----------------------------------|
--0-0-0-0-0-0-0-0-3-3-3-5-3-3-5h6-|--0-0-0-0-0-0-0-0-3-3-3-5-3-3-5h6-|


                                                                      
----------------------------------|----------------------------------|
----------------------------------|----------------------------------|
----------------------------------|----------------------------------|
----------------------------------|----------------------------------|
------------------3-3-3-----------|----------------------------------|
--0-0-0-0-0-0-0-0-------5-5-3-5h6-|--0-0-0-0-0-0-0-0-3-3-3-5-3-3-5h6-|


                                                                      
----------------------------------|----------------------------------|
----------------------------------|----------------------------------|
----------------------------------|----------------------------------|
----------------------------------|----------------------------------|
----------------------------------|----------------------------------|
--0-0-0-0-0-0-0-0-3-3-3-5-3-3-5h6-|--0-0-0-0-0-0-0-0-3-3-3-5-3-3-5h6-|


                                                                      
----------------------------------|----------------------------------|
----------------------------------|----------------------------------|
----------------------------------|----------------------------------|
----------------------------------|----------------------------------|
------------------3-3-3-----------|----------------------------------|
--0-0-0-0-0-0-0-0-------5-5-3-5h6-|--0-0-0-0-0-0-0-0-3-3-3-5-3-3-5h6-|


                                                                      
----------------------------------|----------------------------------|
----------------------------------|----------------------------------|
----------------------------------|----------------------------------|
----------------------------------|----------------------------------|
----------------------------------|----------------------------------|
--0-0-0-0-0-0-0-0-3-3-3-5-3-3-5h6-|--0-0-0-0-0-0-0-0-3-3-3-5-3-3-5h6-|


                                                                      
----------------------------------|----------------------------------|
----------------------------------|----------------------------------|
----------------------------------|----------------------------------|
----------------------------------|----------------------------------|
------------------3-3-3-----------|----------------------------------|
--0-0-0-0-0-0-0-0-------5-5-3-5h6-|--0-0-0-0-0-0-0-0-3-3-3-5-3-3-5h6-|


                                                                      
----------------------------------|----------------------------------|
----------------------------------|----------------------------------|
----------------------------------|----------------------------------|
----------------------------------|----------------------------------|
----------------------------------|----------------------------------|
--0-0-0-0-0-0-0-0-3-3-3-5-3-3-5h6-|--0-0-0-0-0-0-0-0-3-3-3-5-3-3-5h6-|


                                                                              
----------------------------------|-------------------|----------------------|
----------------------------------|--8~---------------|----------8---10---8--|
----------------------------------|-------------------|----------------------|
----------------------------------|-------------------|----------------------|
------------------3-3-3-----------|-------------------|----------------------|
--0-0-0-0-0-0-0-0-------5-5-3-5h6-|-------------------|----------------------|


                                                             
--------------------|-------------------|-------------------|
--7~-----------4~---|--3~---------------|--8~---------------|
--------------------|-------------------|-------------------|
--------------------|-------------------|-------------------|
--------------------|-------------------|-------------------|
--------------------|-------------------|-------------------|


                                                                 
----------------------|--------------------|-------------------||
----------8---10---8--|--7~-----------4~---|--3~---------------||
----------------------|--------------------|-------------------||
----------------------|--------------------|-------------------||
----------------------|--------------------|-------------------||
----------------------|--------------------|-------------------||
            

comments powered by Disqus
↑ Back to top | Halford Tabs for The One You Love To Hate. Lyrics for acoustic guitar and electric guitar. Tablatures and chords are parodies/interpretations of the original songs. You may use it for private study, scholarship, research or language learning purposes only