>
 >
Cyberworld

Cyberworld Guitar Tabs

Halford - Cyberworld chords, tabs, tablatures, lyrics

Guitar lessons | Add/correct | Request | Top 50 tabs Artists:  A B C D E F G H I J K L M N O P Q R S T U V W X Y Z 0-9

Cyberworld Guitar Tabs – Halford

CD, Sheet music, Poster

Do you like Cyberworld? Share with your friends now
Tabs
Band:  Halford

Copyright (c)  



.  - palm mute           /  - slide up to
\  - slide down to       ~  - vibrato
h  - hammer on           b  - Bend
p  - pull off            Suffixes for bend
t  - tap                 f  - full bend    h - half bend
ph - pinched harmonic    q  - quarter bend t - tap bend
*  - see comment         ^  - Hold bend    r release bend
x  - Stuccatto           ~  - vibrato bend
,  - slight palm mute    () - ghost note, sustained note
"  - tremolo note        <> - Trill

Tuning - Standard (E,A,D,G,B,E)

This is a fast song to play and needs a bit of concentration most of the time. Iv'e tabbed it exactly how it comes on the song so all you have to do is follow it.

|-------------------------------------------------------------------|
|-------------------------------------------------------------------|
|------4----4----4----5----4------------5----5----5-----------------|
|---22---22---22---22---22---------5-------------------5------------|
|-------------------------------33---33---33---33---33--------------|
|-------------------------------------------------------------------|
    ..   ..   ..   ..   ..      ..   ..   ..   ..   ..

|-------------------------------------------------------------------|
|-------------------------------------------------------------------|
|-------------------------------------------------------------------|
|------2----2----2----2----2----------------------------------------|
|---00---00---00---00---00---------2----3----5----3----2/3----------|
|-------------------------------00---00---00---00---00--------------|
    ..   ..   ..   ..   ..      ..   ..   ..   ..   ..

|-------------------------------------------------------------------|
|-------------------------------------------------------------------|
|------4----4----4----5----4------------5----5----5-----------------|
|---22---22---22---22---22---------5-------------------5------------|
|-------------------------------33---33---33---33---33--------------|
|-------------------------------------------------------------------|
    ..   ..   ..   ..   ..      ..   ..   ..   ..   ..

|-------------------------------------------------------------------|
|-------------------------------------------------------------------|
|-------------------------------------------------------------------|
|------2----2----2----2----2----------------------------------------|
|---00---00---00---00---00---------2----3----5----3----2/3----------|
|-------------------------------00---00---00---00---00--------------|
    ..   ..   ..   ..   ..      ..   ..   ..   ..   ..

Singing Starts: "You're trapped inside..."

|-------------------------------------------------------------------|
|-------------------------------------------------------------------|
|--------------------7-----------------------9---7------------------|
|---7/9--------7/9---5---9--7/9--------7/9---7---5-7/9--------7/9---|
|---5/7--------5/7-------7--5/7--------5/7---------5/7--------5/7---|
|-------000000-----0---0--------000000-----0---0-------000000-----0-|
	  ......     .   .   	  ......	 .   .	 ......	.

Riff Continues Below

|--------------------------------|
|--------------------------------|
|---7----------------------------|
|---5---9--7/9-------------------|
|-------7--5/7--------7/9---5----|
|-----0--------000000-5/7-0-3----|
	.	   ......	  .

|-------------------------------------------------------------------|
|-------------------------------------------------------------------|
|--------------------7-----------------------9---7------------------|
|---7/9--------7/9---5---9--7/9--------7/9---7---5-7/9--------7/9---|
|---5/7--------5/7-------7--5/7--------5/7---------5/7--------5/7---|
|-------000000-----0---0--------000000-----0---0-------000000-----0-|
	  ......     .   .   	  ......	 .   .	 ......	.

|--------------------------------|
|--------------------------------|
|---7----------------------------|
|---5---9--7/9-------------------|
|-------7--5/7--------7/9---5----|
|-----0--------000000-5/7-0-3----|
	.        ......     .

|----------------------------------|
|----------------------------------|
|----------------------------------|
|---4--5--2-2-3-2--4-5-7-3-7-8-----|
|---2--3--0-4-5-0--2-3-5-5-5-6-----|
|----------------------------------|

Chorus: "Cyberworld"

|-------------------------------------------------------------------|
|-------------------------------------------------------------------|
|-------------------------------------------------------------------|
|---9----5--------------9----3-------5--4--8------------------------|
|---7----3----7----9----7----5----7--3--2--6------------------------|
|-------------5----7--------------5---------------------------------|

|-------------------------------------------------------------------|
|-------------------------------------------------------------------|
|------4----4----4----5----4------------5----5----5-----------------|
|---22---22---22---22---22---------5-------------------5------------|
|-------------------------------33---33---33---33---33--------------|
|-------------------------------------------------------------------|
    ..   ..   ..   ..   ..      ..   ..   ..   ..   ..

|-------------------------------------------------------------------|
|-------------------------------------------------------------------|
|-------------------------------------------------------------------|
|------2----2----2----2----2----------------------------------------|
|---00---00---00---00---00---------2----3----5----3----2/3----------|
|-------------------------------00---00---00---00---00--------------|
    ..   ..   ..   ..   ..      ..   ..   ..   ..   ..

|-------------------------------------------------------------------|
|-------------------------------------------------------------------|
|------4----4----4----5----4------------5----5----5-----------------|
|---22---22---22---22---22---------5-------------------5------------|
|-------------------------------33---33---33---33---33--------------|
|-------------------------------------------------------------------|
    ..   ..   ..   ..   ..      ..   ..   ..   ..   ..

|-------------------------------------------------------------------|
|-------------------------------------------------------------------|
|-------------------------------------------------------------------|
|------2----2----2----2----2----------------------------------------|
|---00---00---00---00---00---------2----3----5----3----2/3----------|
|-------------------------------00---00---00---00---00--------------|
    ..   ..   ..   ..   ..      ..   ..   ..   ..   ..

|-------------------------------------------------------------------|
|-------------------------------------------------------------------|
|--------------------7-----------------------9---7------------------|
|---7/9--------7/9---5---9--7/9--------7/9---7---5-7/9--------7/9---|
|---5/7--------5/7-------7--5/7--------5/7---------5/7--------5/7---|
|-------000000-----0---0--------000000-----0---0-------000000-----0-|
	  ......     .   .   	  ......	 .   .	 ......	.

|--------------------------------|
|--------------------------------|
|---7----------------------------|
|---5---9--7/9-------------------|
|-------7--5/7--------7/9---5----|
|-----0--------000000-5/7-0-3----|
	.        ......     .

|-------------------------------------------------------------------|
|-------------------------------------------------------------------|
|--------------------7-----------------------9---7------------------|
|---7/9--------7/9---5---9--7/9--------7/9---7---5-7/9--------7/9---|
|---5/7--------5/7-------7--5/7--------5/7---------5/7--------5/7---|
|-------000000-----0---0--------000000-----0---0-------000000-----0-|
	  ......     .   .   	  ......	 .   .	 ......	.

|--------------------------------|
|--------------------------------|
|---7----------------------------|
|---5---9--7/9-------------------|
|-------7--5/7--------7/9---5----|
|-----0--------000000-5/7-0-3----|
	.        ......     .

|----------------------------------|
|----------------------------------|
|----------------------------------|
|---4--5--2-2-3-2--4-5-7-3-7-8-----|
|---2--3--0-4-5-0--2-3-5-5-5-6-----|
|----------------------------------|

|-------------------------------------------------------------------|
|-------------------------------------------------------------------|
|-------------------------------------------------------------------|
|---9----5--------------9----3-------5--4----444--------------------|
|---7----3----7----9----7----5----7--3--2----222--5-7---------------|
|-------------5----7--------------5---------------3-5---------------|
							   ... 

Solo starts

|-------------------------------------------------------------------|
|-------------------------------------------------------------------|
|-------------------------------------------------------------------|
|-------------------------------------------------------------------|
|---7/9--------7/9---10-7--7/9--------7/9---10-7--------------------|
|---5/7-777777-5/7-7--8-5--5/7-777777-5/7-7--8-5--------------------|
	  ......			 ......     .

|-------------------------------------------------------------------|
|-------------------------------------------------------------------|
|-------------------------------------------------------------------|
|-------------------------------------------------------------------|
|---7/9--------7/9---10-7---9-10-7--9--10-7-------------------------|
|---5/7-777777-5/7-7--8-5---7--8-5--7---8-5-------------------------|
	  ......	 .

|-------------------------------------------------------------------|
|-------------------------------------------------------------------|
|-------------------------------------------------------------------|
|-------------------------------------------------------------------|
|---7/9--------7/9---10-7--7/9--------7/9---10-7--------------------|
|---5/7-777777-5/7-7--8-5--5/7-777777-5/7-7--8-5--------------------|
	  ......	 .	       ......	.

|-------------------------------------------------------------------|
|-------------------------------------------------------------------|
|-------------------------------------------------------------------|
|-------------------------------------------------------------------|
|---7/9--------7/9---10-7---9-10-7--9--10-7-9-10-12-10-12-13--------|
|---5/7-777777-5/7-7--8-5---7--8-5--7---8-5-7--8-10--8-10-11--------|
	  ......	 .

|-------------------------------------------------------------------|
|-------------------------------------------------------------------|
|-------------------------------------------------------------------|
|---9----5--------------9----3-------5--4---------------------------|
|---7----3----7----9----7----5----7--3--2---------------------------|
|-------------5----7--------------5---------------------------------|

|-------------------------------------------------------------------|
|-------------------------------------------------------------------|
|-------------------------------------------------------------------|
|---9----5--------------9----3-------5--4---------------------------|
|---7----3----7----9----7----5----7--3--2---------------------------|
|-------------5----7--------------5---------------------------------|

|-------------------------------------------------------------------|
|-------------------------------------------------------------------|
|-------------------------------------------------------------------|
|---9----5--------------9----3-------5--4---------------------------|
|---7----3----7----9----7----5----7--3--2---------------------------|
|-------------5----7--------------5---------------------------------|

Outro Riff

|-------------------------------------------------------------------|
|-------------------------------------------------------------------|
|----4-5-4-2--4-5-4-2--4-5-4-2--------------------------------------|
|--------------------------------9\---------------------------------|
|--------------------------------7\---------------------------------|





Comments


Popular Halford tabs & chords
Light Of The World Chords
Till The Day I Die Chords
Made In Hell Tabs
Resurection Tabs
Saviour Tabs
The One You Love To Hate Tabs
We Own The Night Intro Tabs
Wrath Of God Tabs
Wrath Of God 1 Tabs
Light Of The World Ukulele


Song lyrics



↑ Back to top | Tablatures and chords are parodies/interpretations of the original songs. You may use it for private study, scholarship, research or language learning purposes only
© 2014 AZChords.com Contact us | Privacy policy | DMCA | Add/correct tabs | Request tabs | Top 50 tabs