» » »

Half Man Half Biscuit, Irk The Purists Tabs (ver.1)

Artists:  A B C D E F G H I J K L M N O P Q R S T U V W X Y Z # 

Irk The Purists Tabs (ver.1)

Half Man Half Biscuit Tabs
 Rating:
4/5 (4 votes)
Irk The Purists lessons Tabs too difficult? Try these video lessons and learn fast
                Track: Irk The Purists


VERSE 1

        E                          A
Give me Love, give me Can, give me Meatloaf

        E                     B
Give me Rush, give me Marquee Moon

        E                          A              E
Michael Ball, or The Fall, I could listen to them all

       E               B    E
In the twilight or the afternoon


CHORUS

E                A                B                     E     A    E
Irk the purists, irk the purists, irk the purists its a right good laugh

E                A                B                      E
Irk the purists, irk the purists, irk the purists at the back


VERSE 2

       E                           A 
Hall & Oates, ?random goth?, Miles Davis

      E                      B
Patti Smith, Simply Red, Sly Stone

        E                       A                 E 
Be they false or 4REAL, I don't care and nor does Neil

   E              B          E
So long as we can hear their songs


CHORUS

E                A                B                    E  A   E
Irk the purists, irk the purists, it could well be an olympic sport

E                A                B                        E
Irk the purists, irk the purists, if you've never then you ought

GUITAR SOLO

        E                      A
e|-------------------------------------------------------------------------|
B|-------------------------------------------------------------------------|
G|--4-4-4---1--------------------------------------------------------------|
D|---------------4-2--4-2----------2---------------------------------------|
A|-----------------------------4-------------------------------------------|
E|-------------------------------------------------------------------------|

        E                B
e|-------------------------------------------------------------------------|
B|-------------------------------------------------------------------------|
G|--4-4-4--1---------1-----------------------------------------------------|
D|-------------4--2------4-------------------------------------------------|
A|-------------------------------------------------------------------------|
E|-------------------------------------------------------------------------|

        E                  A                      E
e|-------------------------------------------------------------------------|
B|-------------------------------------------------------------------------|
G|--4-4-4--1---------------------------------------------------------------|
D|-------------4--2--4-2------2--------------------------------------------|
A|------------------------4------------------------------------------------|
E|-------------------------------------------------------------------------|


            E     B          E
e|-------------------------------------------------------------------------|
B|-------------------------------------------------------------------------|
G|----------1-4--2-1-------------------------------------------------------|
D|---2-4------------------4--2---------------------------------------------|
A|-------------------------------------------------------------------------|
E|-------------------------------------------------------------------------|


Husker Du Du Du, Captain Beefheart, E L O
Chris de Burgh, Sun Ra, Del Amitri, John Coltrane


E - A - B - E - A - B


CHORUS

E                A                B                       E     A  E
Irk the purists, irk the purists, come on boy you know it feels so right

E                A                B               E       A
Irk the purists, irk the purists, irk the purists tonight 

E - A - E - A - E
            
Submit corrections

comments powered by Disqus
↑ Back to top | Half Man Half Biscuit Tabs for Irk The Purists. Lyrics for acoustic guitar and electric guitar. Tablatures and chords are parodies/interpretations of the original songs. You may use it for private study, scholarship, research or language learning purposes only