>
 >
Slave To The Grind

Slave To The Grind Guitar Tabs

Halestorm - Slave To The Grind chords, tabs, tablatures, lyrics

Guitar lessons | Add/correct | Request | Top 50 tabs Artists:  A B C D E F G H I J K L M N O P Q R S T U V W X Y Z 0-9

Slave To The Grind Guitar Tabs – Halestorm

CD, Sheet music, Poster

Do you like Slave To The Grind? Share with your friends now
Tabs
Slave to the Grind
Halestorm
Reanimate: The Covers - EP (2011)

Words & Music by Sebastian Bach, Rachel Bolan, and Dave Sabo

NOTE: I do not know the solo

GTR I - Drop C# Tuning "Lzzy Hale" (d#,A#,F#,C#,G#,C#)
GTR II - Drop C# Tuning "Joe Hottinger" (d#,A#,F#,C#,G#,C#)

Intro

   GTR I
d#|-------------------------------------------------|
A#|-------------------------------------------------|
F#|--6--6--6--6--6--6--6--6--6--6--6--6--6--6--6--6-|
C#|--x--x--x--x--x--x--x--x--x--x--x--x--x--x--x--x-|
G#|--4--4--4--4--4--4--4--4--4--4--4--4--4--4--4--4-|
C#|-------------------------------------------------|
  |
  |GTR II
d#|-------------------------------------------------|
A#|-------------------------------------------------|
F#|--2----------------------------------------------|
C#|--2----------------------------------------------|
G#|--0----------------------------------------------|
C#|-------------------------------------------------|

   GTR I
d#|-------------------------------------------------|
A#|-------------------------------------------------|
F#|--6--6--6--6--6--6--6--6--6--6--6--6--6--6--6--6-|
C#|--x--x--x--x--x--x--x--x--x--x--x--x--x--x--x--x-|
G#|--4--4--4--4--4--4--4--4--4--4--4--4--4--4--4--4-|
C#|-------------------------------------------------|

   GTR I
d#|-------------------------------------------------|
A#|-------------------------------------------------|
F#|--7--7--7--7--7--7--7--7--7--7--7--7--7--7--7--7-|
C#|--x--x--x--x--x--x--x--x--x--x--x--x--x--x--x--x-|
G#|--5--5--5--5--5--5--5--5--5--5--5--5--5--5--5--5-|
C#|-------------------------------------------------|
  |
  |GTR II
d#|-------------------------------------------------|
A#|-------------------------------------------------|
F#|--5----------------------------------------------|
C#|--x----------------------------------------------|
G#|--3----------------------------------------------|
C#|-------------------------------------------------|

   GTR I
d#|-------------------------------------------------|
A#|-------------------------------------------------|
F#|-11-11-11-11-11-11-11-11-11-11-11-11-11-11-11-11-|
C#|--x--x--x--x--x--x--x--x--x--x--x--x--x--x--x--x-|
G#|--9--9--9--9--9--9--9--9--9--9--9--9--9--9--9--9-|
C#|-------------------------------------------------|
  |
  |GTR II
d#|-------------------------------------------------|
A#|-------------------------------------------------|
F#|--7----------------------------------------------|
C#|--x----------------------------------------------|
G#|--5----------------------------------------------|
C#|-------------------------------------------------|

   GTR I
d#|-------------------------------------------------|
A#|-------------------------------------------------|
F#|--6--6--6--6--6--6--6--6--6--6--6--6--6--6--6--6-|
C#|--x--x--x--x--x--x--x--x--x--x--x--x--x--x--x--x-|
G#|--4--4--4--4--4--4--4--4--4--4--4--4--4--4--4--4-|
C#|-------------------------------------------------|
  |
  |GTR II
d#|-------------------------------------------------|
A#|-------------------------------------------------|
F#|--2----------------------------------------------|
C#|--2----------------------------------------------|
G#|--0----------------------------------------------|
C#|-------------------------------------------------|

   GTR I
d#|-------------------------------------------------|
A#|-------------------------------------------------|
F#|--6--6--6--6--6--6--6--6--6--6--6--6--6--6--6--6-|
C#|--x--x--x--x--x--x--x--x--x--x--x--x--x--x--x--x-|
G#|--4--4--4--4--4--4--4--4--4--4--4--4--4--4--4--4-|
C#|-------------------------------------------------|
  |
  |GTR II
d#|-------------------------------------------------|
A#|-------------------------------------------------|
F#|--------------------------------------4----------|
C#|--------------------------------------x----------|
G#|--------------------------------------2----------|
C#|-------------------------------------------------|

   GTR I
d#|-------------------------------------------------|
A#|-------------------------------------------------|
F#|--7--7--7--7--7--7--7--7--7--7--7--7--7--7--7--7-|
C#|--x--x--x--x--x--x--x--x--x--x--x--x--x--x--x--x-|
G#|--5--5--5--5--5--5--5--5--5--5--5--5--5--5--5--5-|
C#|-------------------------------------------------|
  |
  |GTR II
d#|-------------------------------------------------|
A#|-------------------------------------------------|
F#|--5----------------------------------------------|
C#|--x----------------------------------------------|
G#|--3----------------------------------------------|
C#|-------------------------------------------------|

   GTR I
d#|-------------------------------------------------|
A#|-------------------------------------------------|
F#|-11-11-11-11-11-11-11-11-11-11-11-11-11-11-11-11-|
C#|--x--x--x--x--x--x--x--x--x--x--x--x--x--x--x--x-|
G#|--9--9--9--9--9--9--9--9--9--9--9--9--9--9--9--9-|
C#|-------------------------------------------------|
  |
  |GTR II
d#|-------------------------------------------------|
A#|-------------------------------------------------|
F#|--7----------------------------------------------|
C#|--x----------------------------------------------|
G#|--5----------------------------------------------|
C#|-------------------------------------------------|

   GTR I
d#|-------------------------------------------------|
A#|-------------------------------------------------|
F#|-11-11-11-11-11-11-11-11-11-11-11-11-11-11-11-11-|
C#|--x--x--x--x--x--x--x--x--x--x--x--x--x--x--x--x-|
G#|--9--9--9--9--9--9--9--9--9--9--9--9--9--9--9--9-|
C#|-------------------------------------------------|
  |
  |GTR II
d#|-------------------------------------------------|
A#|-------------------------------------------------|
F#|-------------------------------------------------|
C#|--7-----7-----7-----7-----7-----7-----7-----7----|
G#|--5-----5-----5-----5-----5-----5-----5-----5----|
C#|-------------------------------------------------|
     .     .     .     .     .     .     .     .

   GTR I
d#|-------------------------------------------------|
A#|-------------------------------------------------|
F#|-11-11-11-11-11-11-11-11-11-11-11-11-11-11-11-11-|
C#|--x--x--x--x--x--x--x--x--x--x--x--x--x--x--x--x-|
G#|--9--9--9--9--9--9--9--9--9--9--9--9--9--9--9--9-|
C#|-------------------------------------------------|
  |
  |GTR II
d#|-------------------------------------------------|
A#|-------------------------------------------------|
F#|--------------------------7--7--7--7--7--7--7--7-|
C#|--7--7--7--7--7--7--7--7--7--7--7--7--7--7--7--7-|
G#|--5--5--5--5--5--5--5--5--5--5--5--5--5--5--5--5-|
C#|-------------------------------------------------|
     .  .  .  .  .  .  .  .

Main Riff

   GTR I,II
d#|-------------------------------------------------|
A#|-------------------------------------------------|
F#|--5--------2--------------5--------2-------------|
C#|--5--------2--2--2--2--2--5--------2--2--2--2--2-|
G#|--3--------0--0--0--0--0--3--------0--0--0--0--0-|
C#|-------------------------------------------------|
                 .  .  .  .              .  .  .  .

   GTR I,II
d#|-------------------------------------------------|
A#|-------------------------------------------------|
F#|--5--------2-------------------/7-----5----------|
C#|--5--------2--2--2--2--2--2--2-/7-----5----------|
G#|--3--------0--0--0--0--0--0--0-/5-----3----------|
C#|-------------------------------------------------|
                 .  .  .  .  .  .                  

   GTR I,II
d#|-------------------------------------------------|
A#|-------------------------------------------------|
F#|--5--------2--------------5--------2-------------|
C#|--5--------2--2--2--2--2--5--------2--2--2--2--2-|
G#|--3--------0--0--0--0--0--3--------0--0--0--0--0-|
C#|-------------------------------------------------|
                 .  .  .  .              .  .  .  .

   GTR I,II
d#|-------------------------------------------------|
A#|-------------------------------------------------|
F#|--5--------2-------------------------------------|
C#|--5--------2--2--2--2--2--2--2--------5h-7-------|
G#|--3--------0--0--0--0--0--0--0--3h-5-------------|
C#|-------------------------------------------------|
                 .  .  .  .  .  .                  

   GTR I,II
d#|-------------------------------------------------|
A#|-------------------------------------------------|
F#|--5--------2--------------5--------2-------------|
C#|--5--------2--2--2--2--2--5--------2--2--2--2--2-|
G#|--3--------0--0--0--0--0--3--------0--0--0--0--0-|
C#|-------------------------------------------------|
                 .  .  .  .              .  .  .  .

   GTR I,II
d#|-------------------------------------------------|
A#|-------------------------------------------------|
F#|--5--------2-------------------/7-----5----------|
C#|--5--------2--2--2--2--2--2--2-/7-----5----------|
G#|--3--------0--0--0--0--0--0--0-/5-----3----------|
C#|-------------------------------------------------|
                 .  .  .  .  .  .                  

   GTR I,II
d#|-------------------------------------------------|
A#|-------------------------------------------------|
F#|--5--------2--------------5--------2-------------|
C#|--5--------2--2--2--2--2--5--------2--2--2--2--2-|
G#|--3--------0--0--0--0--0--3--------0--0--0--0--0-|
C#|-------------------------------------------------|
                 .  .  .  .              .  .  .  .

   GTR I,II
d#|-------------------------------------------------|
A#|-------------------------------------------------|
F#|--5--------2-------------------------------------|
C#|--5--------2--2--2--2--2--2--2--------5h-7-------|
G#|--3--------0--0--0--0--0--0--0--3h-5-------------|
C#|-------------------------------------------------|
                 .  .  .  .  .  .                  

Verse: GTR II plays Main Riff

Pre Chorus

   GTR I,II
d#|-------------------------------------------------|
A#|-------------------------------------------------|
F#|-------------------------------------------------|
C#|--5--------5-------------------------------------|
G#|--5--------5-------------------------------------|
C#|--5--------5-------------------------------------|

   GTR I,II
d#|-------------------------------------------------|
A#|-------------------------------------------------|
F#|--7--------7-------------------------------------|
C#|--7--------7-------------------------------------|
G#|--5--------5-------------------------------------|
C#|-------------------------------------------------|

   GTR I,II
d#|-------------------------------------------------|
A#|-------------------------------------------------|
F#|-------------------------------------------------|
C#|--5--------5-------------------------------------|
G#|--5--------5-------------------------------------|
C#|--5--------5-------------------------------------|

   GTR I,II
d#|-------------------------------------------------|
A#|-------------------------------------------------|
F#|--7--------7-----------------7-----5--------4----|
C#|--7--------7-----------------7-----5--------4----|
G#|--5--------5-----------------5-----3--------2----|
C#|-------------------------------------------------|

Chorus

   GTR I
d#|-------------|-------------|-------------|
A#|-------------|-------------|-------------|
F#|--2----------|--5----------|--7----------|
C#|--2----------|--5----------|--7----------|
G#|--0----------|--3----------|--5----------|
C#|-------------|-------------|-------------|
  |
  |GTR II
d#|-------------|-------------|-------------|
A#|-------------|-------------|-------------|
F#|--2----------|--5----------|-11----------|
C#|--2----------|--5----------|-11----------|
G#|--0----------|--3----------|--9----------|
C#|-------------|-------------|-------------|

   GTR I
d#|-------------------------------------------------|
A#|-------------------------------------------------|
F#|--7--------5--------2----------------------------|
C#|--7--------5--------2----------------------------|
G#|--5--------3--------0----------------------------|
C#|-------------------------------------------------|
  |
  |GTR II
d#|-------------------------------------------------|
A#|-------------------------------------------------|
F#|-11--------9--------6----------------------------|
C#|-11--------9--------6----------------------------|
G#|--9--------7--------4----------------------------|
C#|-------------------------------------------------|

   GTR I
d#|-------------|-------------|-------------|
A#|-------------|-------------|-------------|
F#|--2----------|--5----------|--7----------|
C#|--2----------|--5----------|--7----------|
G#|--0----------|--3----------|--5----------|
C#|-------------|-------------|-------------|
  |
  |GTR II
d#|-------------|-------------|-------------|
A#|-------------|-------------|-------------|
F#|--2----------|--5----------|-11----------|
C#|--2----------|--5----------|-11----------|
G#|--0----------|--3----------|--9----------|
C#|-------------|-------------|-------------|

   GTR I
d#|-------------------------------------------------|
A#|-------------------------------------------------|
F#|--7--------5--------2-----------------2--2-------|
C#|--7--------5--------2-----------------2--2-------|
G#|--5--------3--------0-----------------0--0-------|
C#|-------------------------------------------------|
  |
  |GTR II
d#|-------------------------------------------------|
A#|-------------------------------------------------|
F#|-11--------9--------6-----------------2--2-------|
C#|-11--------9--------6-----------------2--2-------|
G#|--9--------7--------4-----------------0--0-------|
C#|-------------------------------------------------|

Main Riff  - 1x
Verse      - 1x
Pre Chorus - 1x

Chorus 2

   GTR I
d#|-------------|-------------|-------------|
A#|-------------|-------------|-------------|
F#|--2----------|--5----------|--7----------|
C#|--2----------|--5----------|--7----------|
G#|--0----------|--3----------|--5----------|
C#|-------------|-------------|-------------|
  |
  |GTR II
d#|-------------|-------------|-------------|
A#|-------------|-------------|-------------|
F#|--2----------|--5----------|-11----------|
C#|--2----------|--5----------|-11----------|
G#|--0----------|--3----------|--9----------|
C#|-------------|-------------|-------------|

   GTR I
d#|-------------------------------------------------|
A#|-------------------------------------------------|
F#|--7--------5--------2----------------------------|
C#|--7--------5--------2----------------------------|
G#|--5--------3--------0----------------------------|
C#|-------------------------------------------------|
  |
  |GTR II
d#|-------------------------------------------------|
A#|-------------------------------------------------|
F#|-11--------9--------6----------------------------|
C#|-11--------9--------6----------------------------|
G#|--9--------7--------4----------------------------|
C#|-------------------------------------------------|

   GTR I
d#|-------------|-------------|-------------|
A#|-------------|-------------|-------------|
F#|--2----------|--5----------|--7----------|
C#|--2----------|--5----------|--7----------|
G#|--0----------|--3----------|--5----------|
C#|-------------|-------------|-------------|
  |
  |GTR II
d#|-------------|-------------|-------------|
A#|-------------|-------------|-------------|
F#|--2----------|--5----------|-11----------|
C#|--2----------|--5----------|-11----------|
G#|--0----------|--3----------|--9----------|
C#|-------------|-------------|-------------|

   GTR I,II
d#|-------------------------------------------------|
A#|-------------------------------------------------|
F#|--7--------5--------2----------------------------|
C#|--7--------5--------2----------------------------|
G#|--5--------3--------0----------------------------|
C#|-------------------------------------------------|

   GTR I,II
d#|-------------------------------------------------|
A#|-------------------------------------------------|
F#|--7--------5--------2----------------------------|
C#|--7--------5--------2----------------------------|
G#|--5--------3--------0----------------------------|
C#|-------------------------------------------------|

Interlude

   GTR I
d#|-------------------------------------------------|
A#|-------------------------------------------------|
F#|--5--5--5--5--5--5--5--5--5--5--5--5--5--5--5--5-|
C#|--5--5--5--5--5--5--5--5--5--5--5--5--5--5--5--5-|
G#|--3--3--3--3--3--3--3--3--3--3--3--3--3--3--3--3-|
C#|-------------------------------------------------|
  |
  |GTR II
d#|-------------------------------------------------|
A#|--5-----------------------------------5----------|
F#|-----------5-------------------------------------|
C#|--------------------7-----------------------7----|
G#|-------------------------------------------------|
C#|-------------------------------------------------|

   GTR I
d#|-------------------------------------------------|
A#|-------------------------------------------------|
F#|-------------------------------------------------|
C#|--5--5--5--5--5--5--5--5--5--5--5--5--5--5--5--5-|
G#|--5--5--5--5--5--5--5--5--5--5--5--5--5--5--5--5-|
C#|--5--5--5--5--5--5--5--5--5--5--5--5--5--5--5--5-|
  |
  |GTR II
d#|-------------------------------------------------|
A#|--3-----------------------------------3----------|
F#|-----------4-------------------------------------|
C#|--------------------5-----------------------5----|
G#|-------------------------------------------------|
C#|-------------------------------------------------|

   GTR I
d#|-------------------------------------------------|
A#|-------------------------------------------------|
F#|--7--7--7--7--7--7--7--7--7--7--7--7--7--7--7--7-|
C#|--7--7--7--7--7--7--7--7--7--7--7--7--7--7--7--7-|
G#|--5--5--5--5--5--5--5--5--5--5--5--5--5--5--5--5-|
C#|-------------------------------------------------|
  |
  |GTR II
d#|-------------------------------------------------|
A#|--7-----------------------------------7----------|
F#|-----------7-------------------------------------|
C#|--------------------7-----------------------7----|
G#|-------------------------------------------------|
C#|-------------------------------------------------|

   GTR I
d#|-------------------------------------------------|
A#|-------------------------------------------------|
F#|-------------------------------------------------|
C#|--7--7--7--7--7--7--7--7--7--7--7--7--7--7--7--7-|
G#|--7--7--7--7--7--7--7--7--7--7--7--7--7--7--7--7-|
C#|--7--7--7--7--7--7--7--7--7--7--7--7--7--7--7--7-|
  |
  |GTR II
d#|-------------------------------------------------|
A#|--5-----------------------------------5----------|
F#|-----------5-------------------------------------|
C#|--------------------7-----------------------7----|
G#|-------------------------------------------------|
C#|-------------------------------------------------|

   GTR I
d#|-------------------------------------------------|
A#|-------------------------------------------------|
F#|--5--5--5--5--5--5--5--5--5--5--5--5--5--5--5--5-|
C#|--5--5--5--5--5--5--5--5--5--5--5--5--5--5--5--5-|
G#|--3--3--3--3--3--3--3--3--3--3--3--3--3--3--3--3-|
C#|-------------------------------------------------|
  |
  |GTR II
d#|-------------------------------------------------|
A#|--5-----------------------------------5----------|
F#|-----------5-------------------------------------|
C#|--------------------7-----------------------7----|
G#|-------------------------------------------------|
C#|-------------------------------------------------|

   GTR I
d#|-------------------------------------------------|
A#|-------------------------------------------------|
F#|-------------------------------------------------|
C#|--5--5--5--5--5--5--5--5--5--5--5--5--5--5--5--5-|
G#|--5--5--5--5--5--5--5--5--5--5--5--5--5--5--5--5-|
C#|--5--5--5--5--5--5--5--5--5--5--5--5--5--5--5--5-|
  |
  |GTR II
d#|-------------------------------------------------|
A#|--3-----------------------------------3----------|
F#|-----------4-------------------------------------|
C#|--------------------5-----------------------5----|
G#|-------------------------------------------------|
C#|-------------------------------------------------|

   GTR I,II
d#|-------------------------------------------------|
A#|-------------------------------------------------|
F#|--7--7--7--7--7--7--7--7--7--7--7--7--7--7--7--7-|
C#|--7--7--7--7--7--7--7--7--7--7--7--7--7--7--7--7-|
G#|--5--5--5--5--5--5--5--5--5--5--5--5--5--5--5--5-|
C#|-------------------------------------------------|

   GTR I,II
d#|-------------------------------------------------|
A#|-------------------------------------------------|
F#|--9--9--9--9--9--9--9--9--9--9--9--9--9--9--9--9-|
C#|--9--9--9--9--9--9--9--9--9--9--9--9--9--9--9--9-|
G#|--7--7--7--7--7--7--7--7--7--7--7--7--7--7--7--7-|
C#|-------------------------------------------------|

   GTR I,II
d#|-------------------------------------------------|
A#|-------------------------------------------------|
F#|-------------------------------------------------|
C#|-------------------------------------------------|
G#|-------------------------------------------------|
C#|-------------------------------------------------|

Guitar Solo (Played by GTR II)

   GTR I
d#|-------------------------------------------------|
A#|-------------------------------------------------|
F#|-------------------------------------------------|
C#|--3--------0--------------3--------0-------------|
G#|--3--------0--0--0--0--0--3--------0--0--0--0--0-|
C#|--3--------0--0--0--0--0--3--------0--0--0--0--0-|
                 .  .  .  .              .  .  .  .

   GTR I
d#|-------------------------------------------------|---|
A#|-------------------------------------------------|---|
F#|-------------------------------------------------|-o-|
C#|--3--------0--------------------5-----3----------|-o-|
G#|--3--------0--0--0--0--0--0--0--5-----3----------|---|
C#|--3--------0--0--0--0--0--0--0--5-----3----------|---|
                 .  .  .  .  .  .                  

   GTR I,II
d#|-------------------------------------------------|
A#|-------------------------------------------------|
F#|--5--------2--------------5--------2-------------|
C#|--5--------2--2--2--2--2--5--------2--2--2--2--2-|
G#|--3--------0--0--0--0--0--3--------0--0--0--0--0-|
C#|-------------------------------------------------|
                 .  .  .  .              .  .  .  .

   GTR I,II
d#|-------------------------------------------------|
A#|-------------------------------------------------|
F#|--5--------2-------------------/7-----5----------|
C#|--5--------2--2--2--2--2--2--2-/7-----5----------|
G#|--3--------0--0--0--0--0--0--0-/5-----3----------|
C#|-------------------------------------------------|
                 .  .  .  .  .  .                  

   GTR I,II
d#|-------------------------------------------------|
A#|-------------------------------------------------|
F#|--5--------2--------------5--------2-------------|
C#|--5--------2--2--2--2--2--5--------2--2--2--2--2-|
G#|--3--------0--0--0--0--0--3--------0--0--0--0--0-|
C#|-------------------------------------------------|
                 .  .  .  .              .  .  .  .

   GTR I,II
d#|-------------------------------------------------|
A#|-------------------------------------------------|
F#|--5--------2-------------------------------------|
C#|--5--------2--2--2--2--2--2--2--------5h-7-------|
G#|--3--------0--0--0--0--0--0--0--3h-5-------------|
C#|-------------------------------------------------|
                 .  .  .  .  .  .                  

Bridge

   GTR I
d#|-------------------------------------------------|
A#|-------------------------------------------------|
F#|--5--5--5--5--5--5--5--5--5--5--5--5--5--5--5--5-|
C#|--5--5--5--5--5--5--5--5--5--5--5--5--5--5--5--5-|
G#|--3--3--3--3--3--3--3--3--3--3--3--3--3--3--3--3-|
C#|-------------------------------------------------|
  |
  |GTR II
d#|-------------------------------------------------|
A#|--5-----------------------------------5----------|
F#|-----------5-------------------------------------|
C#|--------------------7-----------------------7----|
G#|-------------------------------------------------|
C#|-------------------------------------------------|

   GTR I
d#|-------------------------------------------------|
A#|-------------------------------------------------|
F#|-------------------------------------------------|
C#|--5--5--5--5--5--5--5--5--5--5--5--5--5--5--5--5-|
G#|--5--5--5--5--5--5--5--5--5--5--5--5--5--5--5--5-|
C#|--5--5--5--5--5--5--5--5--5--5--5--5--5--5--5--5-|
  |
  |GTR II
d#|-------------------------------------------------|
A#|--3-----------------------------------3----------|
F#|-----------4-------------------------------------|
C#|--------------------5-----------------------5----|
G#|-------------------------------------------------|
C#|-------------------------------------------------|

   GTR I
d#|-------------------------------------------------|
A#|-------------------------------------------------|
F#|--7--7--7--7--7--7--7--7--7--7--7--7--7--7--7--7-|
C#|--7--7--7--7--7--7--7--7--7--7--7--7--7--7--7--7-|
G#|--5--5--5--5--5--5--5--5--5--5--5--5--5--5--5--5-|
C#|-------------------------------------------------|
  |
  |GTR II
d#|-------------------------------------------------|
A#|--7-----------------------------------7----------|
F#|-----------7-------------------------------------|
C#|--------------------7-----------------------7----|
G#|-------------------------------------------------|
C#|-------------------------------------------------|

   GTR I
d#|-------------------------------------------------|
A#|-------------------------------------------------|
F#|-------------------------------------------------|
C#|--7--------5--------4-----2--------4--------5----|
G#|--7--------5--------4-----2--------4--------5----|
C#|--7--------5--------4-----2--------4--------5----|
  |
  |GTR II
d#|-------------------------------------------------|
A#|--5-----------------------------------5----------|
F#|-----------5-------------------------------------|
C#|--------------------7-----------------------7----|
G#|-------------------------------------------------|
C#|-------------------------------------------------|

   GTR I
d#|-------------------------------------------------|
A#|-------------------------------------------------|
F#|--5--5--5--5--5--5--5--5--5--5--5--5--5--5--5--5-|
C#|--5--5--5--5--5--5--5--5--5--5--5--5--5--5--5--5-|
G#|--3--3--3--3--3--3--3--3--3--3--3--3--3--3--3--3-|
C#|-------------------------------------------------|
  |
  |GTR II
d#|-------------------------------------------------|
A#|--5-----------------------------------5----------|
F#|-----------5-------------------------------------|
C#|--------------------7-----------------------7----|
G#|-------------------------------------------------|
C#|-------------------------------------------------|

   GTR I
d#|-------------------------------------------------|
A#|-------------------------------------------------|
F#|-------------------------------------------------|
C#|--5--5--5--5--5--5--5--5--5--5--5--5--5--5--5--5-|
G#|--5--5--5--5--5--5--5--5--5--5--5--5--5--5--5--5-|
C#|--5--5--5--5--5--5--5--5--5--5--5--5--5--5--5--5-|
  |
  |GTR II
d#|-------------------------------------------------|
A#|--3-----------------------------------3----------|
F#|-----------4-------------------------------------|
C#|--------------------5-----------------------5----|
G#|-------------------------------------------------|
C#|-------------------------------------------------|

   GTR I,II
d#|-------------------------------------------------|
A#|-------------------------------------------------|
F#|--7--7--7--7--7--7--7--7--7--7--7--7--7--7--7--7-|
C#|--7--7--7--7--7--7--7--7--7--7--7--7--7--7--7--7-|
G#|--5--5--5--5--5--5--5--5--5--5--5--5--5--5--5--5-|
C#|-------------------------------------------------|

   GTR I,II
d#|-------------------------------------------------|
A#|-------------------------------------------------|
F#|-------------------------------------------------|
C#|--9-----9-----9-----9-----9-----9-----9-----9----|
G#|--7-----7-----7-----7-----7-----7-----7-----7----|
C#|-------------------------------------------------|
     .     .     .     .     .     .     .     .

   GTR I,II
d#|-------------------------------------------------|
A#|-------------------------------------------------|
F#|--9--9--9--9--9--9--9--9--9--9--9--9--9--9--9--9-|
C#|--9--9--9--9--9--9--9--9--9--9--9--9--9--9--9--9-|
G#|--7--7--7--7--7--7--7--7--7--7--7--7--7--7--7--7-|
C#|-------------------------------------------------|

Chorus 3

   GTR II
d#|-------------------------------------------------|
A#|-------------------------------------------------|
F#|--5--------2--------------5--------2-------------|
C#|--5--------2--2--2--2--2--5--------2--2--2--2--2-|
G#|--3--------0--0--0--0--0--3--------0--0--0--0--0-|
C#|-------------------------------------------------|
                 .  .  .  .              .  .  .  .

   GTR II
d#|-------------------------------------------------|
A#|-------------------------------------------------|
F#|--5--------2-------------------/7-----5----------|
C#|--5--------2--2--2--2--2--2--2-/7-----5----------|
G#|--3--------0--0--0--0--0--0--0-/5-----3----------|
C#|-------------------------------------------------|
                 .  .  .  .  .  .                  

   GTR II
d#|-------------------------------------------------|
A#|-------------------------------------------------|
F#|--5--------2--------------5--------2-------------|
C#|--5--------2--2--2--2--2--5--------2--2--2--2--2-|
G#|--3--------0--0--0--0--0--3--------0--0--0--0--0-|
C#|-------------------------------------------------|
                 .  .  .  .              .  .  .  .

   GTR I
d#|-------------------------------------------------|
A#|-------------------------------------------------|
F#|--7--------5--------2----------------------------|
C#|--7--------5--------2----------------------------|
G#|--5--------3--------0----------------------------|
C#|-------------------------------------------------|
  |
  |GTR II
d#|-------------------------------------------------|
A#|-------------------------------------------------|
F#|-11--------9--------6----------------------------|
C#|-11--------9--------6----------------------------|
G#|--9--------7--------4----------------------------|
C#|-------------------------------------------------|

   GTR I
d#|-------------|-------------|-------------|
A#|-------------|-------------|-------------|
F#|--2----------|--5----------|--7----------|
C#|--2----------|--5----------|--7----------|
G#|--0----------|--3----------|--5----------|
C#|-------------|-------------|-------------|
  |
  |GTR II
d#|-------------|-------------|-------------|
A#|-------------|-------------|-------------|
F#|--2----------|--5----------|-11----------|
C#|--2----------|--5----------|-11----------|
G#|--0----------|--3----------|--9----------|
C#|-------------|-------------|-------------|

   GTR I,II
d#|-------------------------------------------------|
A#|-------------------------------------------------|
F#|--7--------5--------2----------------------------|
C#|--7--------5--------2----------------------------|
G#|--5--------3--------0----------------------------|
C#|-------------------------------------------------|

   GTR I,II
d#|-------------------------------------------------|
A#|-------------------------------------------------|
F#|--7--------5--------5-----2----------------------|
C#|--7--------5--------5-----2----------------------|
G#|--5--------3--------3-----0----------------------|
C#|-------------------------------------------------|

   GTR I,II
d#|-------------------------------------------------|
A#|-------------------------------------------------|
F#|--7--------5--------5-----2----------------------|
C#|--7--------5--------5-----2----------------------|
G#|--5--------3--------3-----0----------------------|
C#|-------------------------------------------------|

   GTR I,II
d#|-------------------------------------------------|
A#|-------------------------------------------------|
F#|--7--------5--------5-----2----------------------|
C#|--7--------5--------5-----2----------------------|
G#|--5--------3--------3-----0----------------------|
C#|-------------------------------------------------|

   GTR I,II
d#|-------------------------------------------------|
A#|-------------------------------------------------|
F#|--7--------5--------5-----2----------------------|
C#|--7--------5--------5-----2----------------------|
G#|--5--------3--------3-----0----------------------|
C#|-------------------------------------------------|

   GTR I,II
d#|-------------------------------------------------|
A#|-------------------------------------------------|
F#|-------------------------------------------------|
C#|--5--5--5--5----------------12-10--7-12-10--7----|
G#|--5--5--5--5----------------12-10--7-12-10--7----|
C#|--5--5--5--5----------------12-10--7-12-10--7----|

   GTR I,II
d#|-------------------------------------------------|
A#|-------------------------------------------------|
F#|--7--------5--------2----------------------------|
C#|--7--------5--------2----------------------------|
G#|--5--------3--------0----------------------------|
C#|-------------------------------------------------|


| b  bend
| r  release bend
|trp triplet
|PH. pinch harmonic
|fbk feedback
| .  palm-mute
| /  slide up
| \  slide down
| h  hammer-on
| p  pull-off
| ~  vibrato
|(7) harmonic
| x  Mute note
===============================================================================





Comments


Popular Halestorm tabs & chords
Bad Romance Bass Tabs
Bad Romance Chords
Heres To Us 1 Chords
I Get Off Chords
Private Parts Chords
Tell Me Where It Hurts Chords
Dirty WorkSolo Tabs
Familiar Taste Of Poison Tabs
Heres To Us Tabs
Rock Show Tabs


Song lyrics



↑ Back to top | Tablatures and chords are parodies/interpretations of the original songs. You may use it for private study, scholarship, research or language learning purposes only
© 2014 AZChords.com Contact us | Privacy policy | DMCA | Add/correct tabs | Request tabs | Top 50 tabs