» » »

Rock Show Bass tabs (ver.1)

Artists:  A B C D E F G H I J K L M N O P Q R S T U V W X Y Z # 

Rock Show Bass tabs (ver.1)

Halestorm
Rating:
0/5 (0 votes)

Hard to play? Try these video lessons and learn fast.
                -------------------------------------------------------------------------------
-------------------------------------------------------------------------------


Tuning: EADGBe

Intro verse
G|------------------------------------|---------------------------------------|
D|------------------------------------|---------------------------------------|
A|------------------------------------|---------------------------------------|
E|-0----------------------------------|-0-------------------------------------|

G|------------------------------------|---------------------------------------|
D|------------------------------------|---------------------------------------|
A|----------------3-------------------|-------------------3-------------------|
E|-0------------------------5---------|-0---------------------------5---------|

Chorus 
G|-----------------|-------------------|------------------|-------------------|
D|-----------------|-------------------|------------------|-------------------|
A|-3---------------|-------------------|------------------|-3/5---------------|
E|-----------------|-0-----------------|-3----------------|-------------------|

Verse part 1
G|-----------------|-------------------|------------------|-------------------|
D|-----------------|-------------------|------------------|-------------------|x2
A|-7-5-7-----------|-------------------|-7-5-7------------|-------------------|
E|--------0--0--00-|-0---0---0---0--00-|---------0--0--00-|-0---0---0---0--00-|

Verse part 2
G|-----------------|-------------------|------------------|-------------------|
D|-----------------|-------------------|------------------|-------------------|x2
A|-7-5-7-----------|-3---3-------------|-7-5-7------------|-3---3-------------|
E|--------0--0--00-|---------5---5--55-|---------0--0--00-|---------5---5--55-|

Chorus
G|-----------------|-------------------|------------------|-------------------|
D|-----------------|-------------------|------------------|-------------------|x2
A|-3-----------5---|-------------------|------------------|-3/5---------------|
E|-----------------|-0-----------------|-3----------------|-------------------|

1st Solo Bass line
The Bass part to the solo is essentially the same as the chorus except there are a few licks lick:
G|---5/7-5---------|-------------------|------------------|-------------------|
D|--------7-5------|-------------------|------------------|-------------------|
A|-3---------------|-------------------|------------------|-3------/5---------|
E|-----------------|-0-----------------|-3----------------|-------------------|

Verse 
G|-----------------|-------------------|------------------|-------------------|
D|-----------------|-------------------|------------------|-------------------|
A|-----------------|-------------------|------------------|-------------------|
E|-----------------|-------------------|-00-----00--------|-00------00--------|

G|-----------------|-------------------|------------------|-------------------|
D|-----------------|-------------------|------------------|-------------------|
A|-7-5-7-----------|-7-5-7-------------|-7-5-7------------|-------------------|
E|---------0--0--0-|----------0--0--0--|---------0-0-0-0-0|-0-0-0-0-0-0-0-0---|

Chorus 
G|-----------------|-------------------|------------------|-------------------|
D|-----------------|-------------------|------------------|-------------------|
A|-33-3-3-333-3-5--|-5-----------------|------------------|-55-5-5-555-5-5-5--|
E|-----------------|--0-0-0-000-0-0-0--|-33-3-3-333-3-3-3-|-------------------|

Outro solo
G|-----------------|-------------------|------------------|-------------------|
D|-----------------|-------------------|------------------|-------------------|
A|-3333333333335555|-------------------|------------------|-55555555555555555-|
E|-----------------|-0000000000000000--|-333333333333333--|-------------------|

| /  slide up
| \  slide down
| h  hammer-on
| p  pull-off
| ~  vibrato
| +  harmonic
| x  Mute note
===============================================================================
            
Hard to play? Try these video lessons and learn fast. | Correct




comments powered by Disqus
↑ Back to top | Tablatures and chords are parodies/interpretations of the original songs. You may use it for private study, scholarship, research or language learning purposes only