» » »

I Get Off Bass tabs (ver.1)

Artists:  A B C D E F G H I J K L M N O P Q R S T U V W X Y Z # 

I Get Off Bass tabs (ver.1)

Halestorm
Rating:
2/5 (1 vote)

Hard to play? Try these video lessons and learn fast.
                Album:		Halestorm (Atlantic)
Bassist: 	Josh Smith
Tuning:		5-string: standard (BEADG low-to-high)

Performance Notes

Josh plays this on a 4-string, probably tuned to drop-D, which changes
the middle section where I pedal open B notes.  It sounds correct
to me but he may be pedaling open D notes instead and I'm hearing
the minor harmony.  At any rate, this song rocks the bells.


Verse 1
G|----------------|----------------|----------------|----------------|
D|----------------|----------------|----------------|----------------|
A|----------------|----------------|----------------|----------------|
E|----------------|----------------|----------------|----------------|
B|----------------|------------0~--|----------------|----------------|

G|----------------|----------------|----------------|----------------|
D|----------------|----------------|----------------|----------------|
A|----------------|----------------|----------------|----------7---7-|
E|----------------|----------------|3~--------------|0~--------------|
B|----------------|3~--------------|----------------|----------------|

G|----------------|----------------|----------------|----------------|
D|----------------|----------------|----------------|----------------|
A|----------------|----------------|----------------|----------------|
E|--------------7-|----------------|0---------------|2~--------------|
B|0~--------7-----|3~--------------|----------------|----------------|

G|--------|
D|--------|
A|--------|
E|--------|
B|--------|

Chorus 1
G|----------------|----------------|----------------|----------------|
D|----------------|----------------|----------------|----------------|
A|----------------|----------------|----------------|----------------|
E|----------------|0---0-----------|----------------|3-3-3-3h5-5-5-5-|
B|0-----3---------|------3-5-3-5-3-|0-----3---------|----------------|

G|----------------|----------------|----------------|----------------|
D|----------------|----------------|----------------|----------------|
A|----------------|----------------|----------------|----------------|
E|----------------|0---0-----------|----------------|3-3-3-3h5-5-5-5\|
B|0-----3---------|------3-5-3-5-3-|0-----3---------|----------------|

G|----------------|--------------------------------|
D|----------------|---------------------7-7-9-9/12~|
A|----------------|------------7~-10-10------------|
E|7~------------7-|7-9-9-10-10---------------------|
B|----------------|--------------------------------|

Verse 2
G|----------------|----------------|----------------|----------------|
D|----------------|----------------|--------5/7-5---|----------------|
A|----------------|----------------|----------------|7--------\5---/-|
E|----------------|----------------|3~--------------|----------------|
B|0~--------------|3~--------------|----------------|----------------|

G|------------------|----------------|----------------|----------------|
D|------------------|----------------|----------------|----------------|
A|------------------|----------------|----------------|--------9~------|
E|7---------10------|----------------|0-x-0~----------|2-----7---------|
B|---------------10-|3~--------------|----------------|----------------|

Chorus 2
G|----------------|----------------|----------------|----------------|
D|----------------|----------------|----------------|----------------|
A|----------------|----------------|----------------|----------------|
E|----------------|0---0-----------|----------------|3-3-3-3h5-5-5-5-|
B|0-----3---------|------3-5-3-5-3-|0-----3---------|----------------|

G|----------------|----------------|----------------|----------------|
D|----------------|----------------|----------------|----------------|
A|----------------|----------------|----------------|----------------|
E|----------------|0---0-----------|----------------|3-3-3-3h5-5-5-5-|
B|0-----3---------|------3-5-3-5-3-|0-----3---------|----------------|

Lead-ish Break
G|----------------|----------------|----------------|----------------|
D|----------------|----------------|----------------|----------------|
A|----------------|----------------|----------------|----------------|
E|--7--5--7--5--57|--7---5---------|--7--5--7--5--57|--7---5---------|
B|00-00-00-00-00--|00--00--7-6-5-3-|00-00-00-00-00--|00--00--7-6-5-3-|

G|----------------|----------------|----------------|----------------|
D|----------------|----------------|----------------|----------------|
A|----------------|----------------|----------------|----------------|
E|33--33--33--33--|33--33--33--33--|33--33--33--33--|00--00--00--00--|
B|----------------|----------------|----------------|----------------|

G|----------------|----------------|----------------|----------------|
D|----------------|----------------|----------------|----------------|
A|----------------|----------------|----------------|----------------|
E|2~--------------|----------------|----------------|----------------|
B|----------------|----------------|----------------|----------------|

Chorus 3
G|----------------|----------------|----------------|----------------|
D|----------------|----------------|----------------|----------------|
A|----------------|----------------|----------------|----------------|
E|----------------|0---0-----------|----------------|3-3-3-3h5-5-5-5-|
B|0-----3---------|------3-5-3-5-3-|0-----3---------|----------------|

G|----------------|----------------|----------------|----------------|
D|----------------|----------------|----------------|----------------|
A|----------------|----------------|----------------|----------------|
E|----------------|0---0-----------|----------------|3-3-3-3h5-5-5-5-|
B|0-----3---------|------3-5-3-5-3-|0-----3---------|----------------|

Ending
G|----------------|----------------|----------------|----------------|
D|----------------|----------------|----------------|----------------|
A|----------------|----------------|----------------|----------------|
E|--7--5--7--5--57|--7---5---------|--7--5--7--5--57|--7---5---------|
B|00-00-00-00-00--|00--00--7-6-5-3-|00-00-00-00-00--|00--00--7-6-5-3-|
            
Hard to play? Try these video lessons and learn fast. | Correct




comments powered by Disqus
↑ Back to top | Tablatures and chords are parodies/interpretations of the original songs. You may use it for private study, scholarship, research or language learning purposes only