>
 >
Underneath The Waves 1

Underneath The Waves 1 Guitar Tabs

Hale - Underneath The Waves 1 chords, tabs, tablatures, lyrics

Guitar lessons | Add/correct | Request | Top 50 tabs Artists:  A B C D E F G H I J K L M N O P Q R S T U V W X Y Z 0-9

Underneath The Waves 1 Guitar Tabs – Hale

CD, Sheet music, Poster

Do you like Underneath The Waves 1? Share with your friends now
ChordsTabsTabs v2Ukulele
 
 Title: Underneath the Waves
 Track no.: 9
 Elapsed Time: 4:41
 

 Standard Tuning: EADGBe
 Recommended chords:

           Standard (1st Guitar):        Power chords (2nd Guitar):
             C - x32010                      C - x355xx
            C9 - x32030                     C2 - 81010xxx
             D - xx0232                      D - x577xx
        D#dim7 - xx1212                 D#dim7 - x677xx
            Em - 022000                     Em - 022xxx
             G - 320033                    Em2 - x799xx
            G9 - 320030                      G - 355xxx
           G/B - x20003                    G/B - 799xxx
            Am - x02210                     Am - 577xxx

 

 [Intro]

 

      e|-----------------|---------------------------------|---------3---0-------3---0---------|
      B|----------3------|--------0------0------0------0---|-----------------------------------|
      G|------------0----|------0------0------0------0-----|------0----------0-----------------|
      D|--------------0--|-----------0------0------0-------|-----------------------------------|
      A|-----------------|---------------------------------|---3-------------------------------|
      E|----1-/3---------|---3-----------------------------|-----------------------------------|
 
                        e|---------------------------------|---------3-------0------0------0---|
                        B|--------0------0------0------0---|---------------0------0------0-----|
                        G|------0------0------0------0-----|------0------0------0------0-------|
                        D|-----------0------0------0-------|-----------------------------------|
                        A|---------------------------------|---3-------------------------------|
                        E|---3-----------------------------|-----------------------------------|
 
 [Verse 1]
 
      e|---------------------------------|---------3-------0------0------0---|
      B|--------0------0------0------0---|---------------0------0------0-----|
      G|------0------0------0------0-----|------0------0------0------0-------| 4x
      D|-----------0------0------0-------|-----------------------------------|
      A|---------------------------------|---3-------------------------------|
      E|---3-----------------------------|-----------------------------------|
 
 [Verse 2]
      G-C9
      G-C9
      G-C9
      G-C9
 
      e|---------------------------------|-----------------------------------|
      B|---------------------------------|-----------------------------------|
      G|---------------------------------|--------------------5--------------| 4x
      D|-------------5-------------------|----------10--------5--------------|
      A|-------------5-------------------|----------10---or---3--------------|
      E|-------------3-------------------|----------8------------------------|
 
      Take Note 1: For the 2nd Guitar, just stroke each power chords once downward, with light destortion.
 
 [Refrain]
      Am-Em-C-G
      Am-G/B-C
 
      e|---------------------------------|-----------------------------------|
      B|---------------------------------|-----------------------------------|
      G|--------------------5------------|-----------------------------------|
      D|------7------2------5------5-----|------7------9------10-------------|
      A|------7------2------3------5-----|------7------9------10-------------|
      E|------5------0-------------3-----|------5------7------8--------------|
 
      Take Note 2: For the 2nd Guitar, just stroke each power chords once downward, with light destortion.
 
 [Bridge]
      C-D-D#dim7-Em
      C-D-D#dim7-Em
      C-D-D#dim7-Em
      C-D-Em
 
      e|---------------------------------|               |----------------------------------|
      B|---------------------------------|               |----------------------------------|
      G|------5------7------7------9-----|   3x then...  |------5------7------9-------------|
      D|------5------7------7------9-----|               |------5------7------9-------------|
      A|------3------5------6------7-----|               |------3------5------7-------------|
      E|---------------------------------|               |----------------------------------|
 
      Take Note 3: For the 2nd guitar, strum the power chords with destortion.
      Take Note 4: For both 1st and 2nd guitars, be aware of the strumming in this part.
 
 [Verse 3]
      G-C9
      G-C9
 
      e|---------------------------------|-----------------------------------|
      B|---------------------------------|-----------------------------------|
      G|---------------------------------|--------------------5--------------| 2x
      D|-------------5-------------------|----------10--------5--------------|
      A|-------------5-------------------|----------10---or---3--------------|
      E|-------------3-------------------|----------8------------------------|
 
 [Repeat Refrain]
 [Repeat Bridge]
 
 [Bridge 2]
      D-C
      D-C
      D-C
      Am-G/B-C
 
      e|---------------------------------|               |----------------------------------|
      B|---------------------------------|               |----------------------------------|
      G|---------7----------5------------|   3x then...  |----------------------------------|
      D|---------7----------5------------|               |-------7------9------10-----------|
      A|---------5----------3------------|               |-------7------9------10-----------|
      E|---------------------------------|               |-------5------7------8------------|
 
      Take Note 5: both guitars must strum their chords.
 
 [Repeat Bridge, only for 1st guitar -light strumming]
 
 [Coda]
 
        1st Guitar - plucking
      e|---------------------------------|---------3---0-------3---0---------|
      B|--------0------0------0------0---|-----------------------------------|
      G|------0------0------0------0-----|------0----------0-----------------| 4x until fade
      D|-----------0------0------0-------|-----------------------------------|
      A|---------------------------------|---3-------------------------------|
      E|---3-----------------------------|-----------------------------------|
 

        2nd Guitar - riff

      e|-----8h9-9-9-9--9-9-9-9----------|
      B|---------------------------------|    
      G|---------------------------------| 4x until fade   
      D|---------------------------------|
      A|---------------------------------|
      E|---------------------------------|





Comments


Popular Hale tabs & chords
Empty Tears, Empty Heart Chords
Life Support 1 Chords
Runaway Chords
Underneath The Waves Chords
Vectors Chords
Bahay Kubo 3 Tabs
Kung Wala Ka Tabs
Leap Of Faith Ukulele
Over And Over Ukulele
Take No Ukulele


Song lyrics



↑ Back to top | Tablatures and chords are parodies/interpretations of the original songs. You may use it for private study, scholarship, research or language learning purposes only
© 2014 AZChords.com Contact us | Privacy policy | DMCA | Add/correct tabs | Request tabs | Top 50 tabs