» » »

Hale, Sandali Na Lang Chords (ver.3)

Artists:  A B C D E F G H I J K L M N O P Q R S T U V W X Y Z # 

Sandali Na Lang Chords (ver.3)

Hale Tabs
 Rating:
4/5 (4 votes)
Sandali Na Lang lessons Tabs too difficult? Try these video lessons and learn fast
                Sandali Na Lang
Hale

Verses:
halos lahat..


||---------------------------------||
||---------------------------------||
||--5------------------------------||
||--5------3--5------9-9----7-7----||
||--3------5--5------9-9----7-7----||
||---------3--3------7-7----5-5----||

except ung sa "na makasama ka" , "na makita ka" , "ay wala sa ating kamay" , at "para sa 
dalawa"  ...ganito un

|------------------|
|------------------|
|-5----------------|
|-5----9----7------|
|-3----9----7------|
|------7----5------|


Chorus:


same chords sa mga verses lang kaso iba ang strumming pattern. Tuloy-tuloy na ang mga 
sa chords d2.
:D


||-------------------------||
||-------------------------||
||--5----------------------||
||--5-----5------9----7----||
||--3-----5------9----7----||
||--------3------7----5----||




============================================================================
sory nde ko nagawa ung guitar 2 guitar 1 lang.. hehehhe
kaya nyo yan dali lang e2


-Gerald Ang
            
Submit corrections

comments powered by Disqus
↑ Back to top | Hale Chords for Sandali Na Lang. Lyrics for acoustic guitar and electric guitar. Tablatures and chords are parodies/interpretations of the original songs. You may use it for private study, scholarship, research or language learning purposes only