» » »

Hale, Sandali Na Lang Tabs (ver.1)

Artists:  A B C D E F G H I J K L M N O P Q R S T U V W X Y Z # 

Sandali Na Lang Tabs (ver.1)

Hale Tabs
Rating:
0/5 (0 votes)
Sandali Na Lang lessons Tabs too difficult? Try these video lessons and learn fast
                
Intro:D-Dsus{C9-G-Em/G-D-Dsus}4x
 
 D-Dsus        C9         G7          Em/G        D-Dsus
e|-------2p3-| |-------3-----------3-----------3------------2p3-|
B|-----------| |----------3-----------3-----------3-------------|
G|----2------| |-----0-----------0-----------0-----------2------|(4x)
D|-0---------| |--------------------------------------0---------|
A|-----------| |---3--------------------------------------------|
E|-----------| |--------------3-----------0---------------------|

Verse1: C9-G7 Em/G-D-Dsus-;

     C9         G7          Em/G        D-Dsus
e |-------3-----------3-----------3------------2p3-|
B |----------3-----------3-----------3-------------|
G |-----0-----------0-----------0-----------2------|
D |--------------------------------------0---------|
A |---3--------------------------------------------|
E |--------------3-----------0---------------------|
 Sanda li  na  lang

     C9         G7          Em/G        D-Dsus
e |-------3-----------3-----------3------------2p3-|
B |----------3-----------3-----------3-------------|
G |-----0-----------0-----------0-----------2------|
D |--------------------------------------0---------|
A |---3--------------------------------------------|
E |--------------3-----------0---------------------|
  Konting   pa nahon

     C9         G7          Em/G        D-Dsus
e |-------3-----------3-----------3------------2p3-|
B |----------3-----------3-----------3-------------|
G |-----0-----------0-----------0-----------2------|
D |--------------------------------------0---------|
A |---3--------------------------------------------|
E |--------------3-----------0---------------------|
 Aking   pag hihintay                           na 

  C    Em     A7
e|-0----------0--|
B|-1----0-----2--|
G|-0----0-----0--|
D|-2----2-----2--|
A|-3----2-----0--|
E|-0----0-----x--|
  Maka sa ma  ka

Interlude:(do the intro)

Verse2:(same as verse 1)

  Sandali na lang
  At abot tanaw
  Pan*langin ko
  Na makita ka.

Chorus: C-G-Em-D-

  Naiinip nasasabik, kasing bilis
  Nang isang iglap mahahanap sa may ulap
  Nagtatanong nagtataka bat wala ka pa
  Nakatingala, nakatulala pero sabi mo.



Verse3:(same as verse 1)

  Sandali na lang
  At nandito na
  At ang panahon
  Ay wala sa ating kamay

Verse4:(same as verse 1)

  Huwag mag alala 
  Maraming oras pa
  Ang nakalaan
  Para sa ating dalawa
(repeat chorus)

C9-G7 Em/G-D-Dsus-;
  Sandali na lang
  Sandali na lang
  Sandali na lang
  Sandali na lang

C9-G7 Em/G-D-Dsus-;
  
   Hmmnmmn..hmmnmn...
(repeat till fade)
            
Submit corrections

comments powered by Disqus
↑ Back to top | Hale Tabs for Sandali Na Lang. Lyrics for acoustic guitar and electric guitar. Tablatures and chords are parodies/interpretations of the original songs. You may use it for private study, scholarship, research or language learning purposes only