>
 >
Runaway

Runaway Guitar Tabs

Hale - Runaway chords, tabs, tablatures, lyrics

Guitar lessons | Add/correct | Request | Top 50 tabs Artists:  A B C D E F G H I J K L M N O P Q R S T U V W X Y Z 0-9

Runaway Guitar Tabs – Hale

CD, Sheet music, Poster

Do you like Runaway? Share with your friends now
ChordsChords v2TabsUkulele
Standard Tuning: EADGBe

Chords:

D - x00232
G/A - 002033
G/B - 020033
G - 320033
Gm7 - 353333

Intro: [D-G/A-G-Gm7]

add this riff..

e|--2-00-----------------------|--3-22-0-0---------------|
B|--3-22-3-3-222---------------|--3-33-2-2-333-33-33-33--|
G|-------4-4-222-44-22---------|--0-00-----444-33-33-33--|
D|---------------55-22-55-444--|-------------------------|
A|---------------------55-555--|-------------------------|
E|-----------------------------|-------------------------|

Verse 1: [D-G/A-G-Gm7]

I talked to you tonight
To sort things out the right
Way that we used to be
When you were still here with me

Verse 2: [D-G/A-G-Gm7]

I wanted you to know
If you have loved me so
Then why didn't you let me know
Coz I didn't want to let you go

Refrain: (Nilagyan ko ng Chords baka mahirapan kayo)

add this riff...

e|----3---0---3-2---0---0---0----2----------|
B|----3---3---3-3---3---3----3---3---223-2--|
G|-----------------------------------222-2--|
D|----------0------------------0------------|
A|--0-------------0---2---------------------|
E|------3-----------------3-----------------|

 |----0---3---2---0---0----0----2222222233333333--|
 |----3---3---3---3----3----3---3333333333333333--|
 |------------------------------2222222200000000--|
 |----------0---------------------------22222222--|
 |--2-----------0---2-----------------------------|
 |------3-----------------3-----------------------|

G/A                 G               D
So why do you just runaway from me here
            G/A             G/B
Coz I don't want you to get hurt
   G        D - G/A
By me this way
G/B                   G                D
You loved me to the point where I was lost
            G/A                G/B - G
And that I couldn't catch you there..
     D - G/A
Right there...

Chorus: [D-G/A-G/B-G]

So just runaway
Runaway from here

then...
e|--33--22--0-0-002--|
B|--33--33--3-3-333--|
G|-------------------|
D|-------------------|
A|-------------------|
E|-------------------|

Won't you runaway
Runaway from here

Verse 3: [D-G/A-G-Gm7]

e|------------------------------------|
B|--3--22--2-2--222-------------------|
G|--2--22--3-3--222--44--22-----------|
D|-------------------55--22--55--444--|
A|---------------------------55--555--|
E|------------------------------------|

 |--3-22-0-0---------------|
 |--3-33-2-2-333-33-33-33--|
 |--0-00-----444-33-33-33--|
 |-------------------------|
 |-------------------------|
 |-------------------------|

And I will never know
If we could ever go
The way that we should be
The way that we should be

Refrain:

add this riff...

e|----3---0---3-2---0---0---0----2----------|
B|----3---3---3-3---3---3----3---3---223-2--|
G|-----------------------------------222-2--|
D|----------0------------------0------------|
A|--0-------------0---2---------------------|
E|------3-----------------3-----------------|

 |----0---3---2---0---0----0----2222222233333333--|
 |----3---3---3---3----3----3---3333333333333333--|
 |------------------------------2222222200000000--|
 |----------0---------------------------22222222--|
 |--2-----------0---2-----------------------------|
 |------3-----------------3-----------------------|

G/A                 G               D
So why do you just runaway from me here
            G/A             G/B
Coz I don't want you to get hurt
   G        D - G/A
By me this way
G/B                   G                D
You loved me to the point where I was lost
            G/A                G/B - G
And that I couldn't catch you there..
     D - G/A
Right there...

Chorus: [D-G/A-G/B-G]

So just runaway
Runaway from here

then...
e|--33--22--0-0-002--|
B|--33--33--3-3-333--|
G|-------------------|
D|-------------------|
A|-------------------|
E|-------------------|

Won't you runaway
Runaway from here

Adlib: [D-G/A-G/B-G] -wah pedal

I.

e|--------------------------------------------------------------------|
B|--------------1515---15--15--15--15--15--15--15--15--15--15--15--15-|
G|----------1414------------------------------------------------------|
D|--12121212-------------12--12--12--12--12--12--12--12--12--12--12---|
A|--------------------------------------------------------------------|
E|--------------------------------------------------------------------|

II.

e|---10--10--10--10-17--17--17--17--17--17--|
B|--0---0---0---0--0---15--15--15--15--15---|
G|------------------------------------------|
D|------------------------------------------|
A|------------------------------------------|
E|------------------------------------------|

Chorus: [D-G/A-G/B-G] (Add the adlib)

So just runaway
Runaway from here

then...
e|--33--22--0-0-002--|
B|--33--33--3-3-333--|
G|-------------------|
D|-------------------|
A|-------------------|
E|-------------------|

Won't you runaway
Runaway from here

[Repeat Chorus several times 'til fade]


- END -

Thanks! Enjoy! Please rate this!! ^^,





Comments


Popular Hale tabs & chords
Kahit Pa Bass Tabs
Kalesa 1 Chords
Life Support Chords
Life Support 1 Chords
The Day You Said Goodnight Chords
Day You Said Goodnight 3 Tabs
Waltz Tabs
Blue Sky Ukulele
Kahit Pa Ukulele
Nang Meron Ka Na Ukulele


Song lyrics



↑ Back to top | Tablatures and chords are parodies/interpretations of the original songs. You may use it for private study, scholarship, research or language learning purposes only
© 2014 AZChords.com Contact us | Privacy policy | DMCA | Add/correct tabs | Request tabs | Top 50 tabs