>
 >
Over And Over

Over And Over Guitar Tabs

Hale - Over And Over chords, tabs, tablatures, lyrics

Guitar lessons | Add/correct | Request | Top 50 tabs Artists:  A B C D E F G H I J K L M N O P Q R S T U V W X Y Z 0-9

Over And Over Guitar Tabs – Hale

CD, Sheet music, Poster

Do you like Over And Over? Share with your friends now
ChordsTabsUkulele

If you're using acoustic, I recommend to use the chords below:

D9:   xx0230
D9/G: 3xx230
C9:   x32033
Em9:  022033

Intro: D-G-C9-D-Em9-G

e---------------------------------------------------------I
b------------------8-7---8-7------------------------------I
g------7-------77------7-----7----------------------------I
d--7-9---9-7-9------------------7-9-7--9-7-9-7-9-7-5------I
a---------------------------------------------------------I
E---------------------------------------------------------I

     C9                        D
I'm sick and tired of this pretending
    G                    C9
I thought we had this understanding
   D         Em9
I come to you
             G
You come to me

        C9              D
You're so uptight I'm going insane
         G
But its never enough
   C9            D Em9
I keep wanting you
                    G
More and more each day
(I really really want to do this)

Chorus:
C9     G
O-ooh Over and over
C9     D
O-ooh Over again
C9     G        C9           D  Intro
O-ooh over and oh ooh, ooh, ooh...

e---------------------------------------------------------I
b------------------8-7---8-7------------------------------I
g------7-------77------7-----7----------------------------I
d--7-9---9-7-9------------------7-9-7--9-7-9-7-9-7-5------I
a---------------------------------------------------------I
E---------------------------------------------------------I    
 
    C9                  D
The night is long I'm feeling restless
       G                  C9
I'll bring you down here with this sickness
       D       Em9               G
There is no cure there is no escaping

     C9          D
The end is near We're almost done
          G
But it's never enough
      C9              D Em9                G
I'll keep on wanting you Tonight and tomorrow
(This moment will never be)

Chorus:
C9     G
O-ooh Over and over
C9     D
O-ooh Over again
C9     G        C9           D  
O-ooh over and oh ooh, ooh, ooh...
C9     G
O-ooh Over and over
C9     D
O-ooh Over again
C9     G        C9           D  adlib
O-ooh over and oh ooh, ooh, ooh...

adliB: C9-D-G-C9 (4x)

Chorus:
C9     G
O-ooh Over and over
C9     D
O-ooh Over again
C9     G        C9           D  
O-ooh over and oh ooh, ooh, ooh...
C9     G
O-ooh Over and over
C9     D
O-ooh Over again
C9     G        C9           D  
O-ooh over and oh ooh, ooh, ooh...

coda: D-G-C9-D-Em9-G(hold)

e----------------------------------------------------------I
b------------------8-7---8-7--------------------------8----I
g------7-------77------7-----7-----------------------------I
d--7-9---9-7-9------------------7-9-7--9-7-9-7-9-7-5-------I
a----------------------------------------------------------I
E----------------------------------------------------------I

[fin]
enjoy!





Comments


Popular Hale tabs & chords
Leap Of Faith Chords
Liham Chords
Bent Down Tabs
Bent Down 2 Tabs
Dahil Sa'yo Sa Himig Ng Aking Gitara Tabs
Day You Said Goodnight 2 Tabs
Sandali Na Lang Tabs
Back From Beginning Ukulele
Last Song Ukulele
Underneath The Waves Ukulele


Song lyrics



↑ Back to top | Tablatures and chords are parodies/interpretations of the original songs. You may use it for private study, scholarship, research or language learning purposes only
© 2014 AZChords.com Contact us | Privacy policy | DMCA | Add/correct tabs | Request tabs | Top 50 tabs