>
 >
Dahil Sa'yo Sa Himig Ng Aking Gitara

Dahil Sa'yo Sa Himig Ng Aking Gitara Guitar Tabs

Hale - Dahil Sa'yo Sa Himig Ng Aking Gitara chords, tabs, tablatures, lyrics

Guitar lessons | Add/correct | Request | Top 50 tabs Artists:  A B C D E F G H I J K L M N O P Q R S T U V W X Y Z 0-9

Dahil Sa'yo Sa Himig Ng Aking Gitara Guitar Tabs – Hale

CD, Sheet music, Poster

Do you like Dahil Sa'yo Sa Himig Ng Aking Gitara? Share with your friends now
ChordsTabs
Band: Hale

----------------------------------------------------------------------------
| ------------------------------------------------------------------------ |
| |                                                                      | |
| |                   Thanks to all human being!!!!!!                    | |
| |                 Plsss rate this tab..comentz dn po..                 | |
| |                                                                      | |
| ------------------------------------------------------------------------ |
----------------------------------------------------------------------------

Tuning: EBGDAE(standard)

  **I think the chords used here is more accurate so plss rate this..tnx**

Chords used:
           EBGDAE
C9   -   |--32033-|      
Bm7  -   |--24232-|   
Am   -   |--02210-|
G    -   |-320033-|   
Em   -   |-022000-|
D    -   |---0232-|

  **I think the chords used here is more accurate so plss rate this..tnx**

*** ***Makinig po kayo sa song para makuha nyo ang timing*** ***

Intro:

Guitar 1:
 
   C9         Bm7        Am         G
e|-3-3-333333-2-2-222222-0-0-000000-3-3-333333-|
B|-3-3-333333-3-3-333333-1-1-111111-3-3-333333-|
G|-0-0-000000-2-2-222222-2-2-222222-0-0-000000-|
D|-2-2-222222-4-4-444444-2-2-222222-0-0-000000-|
A|-3-3-333333-2-2-222222-0-0-000000-2-2-222222-|
E|----------------------------------3-3-333333-|

Guitar 2:(papasok kapag na sa chord G na ang guitar 1)

e|-----------------------------------55-3-22-----2-|
B|-----------------------------------77-5-33-3s5-3-|
G|-------------------------------------------------|
D|-------------------------------------------------|
A|-------------------------------------------------|
E|-------------------------------------------------|

Guitar 1:

   C9         Bm7        Am         G
e|-3-3-333333-2-2-222222-0-0-000000-3-3-333333-|
B|-3-3-333333-3-3-333333-1-1-111111-3-3-333333-|
G|-0-0-000000-2-2-222222-2-2-222222-0-0-000000-|
D|-2-2-222222-4-4-444444-2-2-222222-0-0-000000-|
A|-3-3-333333-2-2-222222-0-0-000000-2-2-222222-|
E|----------------------------------3-3-333333-|

Guitar 2:

e|-----2----10-10-8-7-----8-7------|
B|-3s5-3--------------8~------8-8~-|
G|---------------------------------|
D|---------------------------------|
A|---------------------------------|
E|---------------------------------|

Verse 1:

Guitar 1:

   C9         Bm7        Am         G          C9         Bm7         
e|-3-3-333333-2-2-222222-0-0-000000-3-3-333333-3-3-333333-2-2-222222-|
B|-3-3-333333-3-3-333333-1-1-111111-3-3-333333-3-3-333333-3-3-333333-|
G|-0-0-000000-2-2-222222-2-2-222222-0-0-000000-0-0-000000-2-2-222222-|
D|-2-2-222222-4-4-444444-2-2-222222-0-0-000000-2-2-222222-4-4-444444-|
A|-3-3-333333-2-2-222222-0-0-000000-2-2-222222-3-3-333333-2-2-222222-|
E|----------------------------------3-3-333333-----------------------|
(continue)
   Am         G
e|-0-0-000000-3-3-333333-|
B|-1-1-111111-3-3-333333-|
G|-2-2-222222-0-0-000000-|
D|-2-2-222222-0-0-000000-|
A|-0-0-000000-2-2-222222-|
E|------------3-3-333333-|

Interlude:

Guitar 1:

   C9         Bm7        Am         G
e|-3-3-333333-2-2-222222-0-0-000000-3-3-333333-|
B|-3-3-333333-3-3-333333-1-1-111111-3-3-333333-|
G|-0-0-000000-2-2-222222-2-2-222222-0-0-000000-|
D|-2-2-222222-4-4-444444-2-2-222222-0-0-000000-|
A|-3-3-333333-2-2-222222-0-0-000000-2-2-222222-|
E|----------------------------------3-3-333333-|

Guitar 2:

e|-10-10---10-10--------7-55-3-2--3-5-7-|
B|------------------8-----77-5-3--5-7-8-|
G|----------------7---------------------|
D|--------------------------------------|
A|--------------------------------------|
E|--------------------------------------|

Verse 2:(same as verse 1)

Guitar 1:

   C9         Bm7        Am         G          C9         Bm7         
e|-3-3-333333-2-2-222222-0-0-000000-3-3-333333-3-3-333333-2-2-222222-|
B|-3-3-333333-3-3-333333-1-1-111111-3-3-333333-3-3-333333-3-3-333333-|
G|-0-0-000000-2-2-222222-2-2-222222-0-0-000000-0-0-000000-2-2-222222-|
D|-2-2-222222-4-4-444444-2-2-222222-0-0-000000-2-2-222222-4-4-444444-|
A|-3-3-333333-2-2-222222-0-0-000000-2-2-222222-3-3-333333-2-2-222222-|
E|----------------------------------3-3-333333-----------------------|
(continue)
   Am         G
e|-0-0-000000-3-3-333333-|
B|-1-1-111111-3-3-333333-|
G|-2-2-222222-0-0-000000-|
D|-2-2-222222-0-0-000000-|
A|-0-0-000000-2-2-222222-|
E|------------3-3-333333-|

Refrain:

Guitar 1:

   Em         C9         Bm7        Em
e|-0-0-000000-3-3-333333-2-2-222222-0-0-000000-|
B|-0-0-000000-3-3-333333-3-3-333333-0-0-000000-|
G|-0-0-000000-0-0-000000-2-2-222222-0-0-000000-|
D|-2-2-222222-2-2-222222-4-4-444444-2-2-222222-|
A|-2-2-222222-3-3-333333-2-2-222222-2-2-222222-|
E|-0-0-000000-----------------------0-0-000000-|

Guitar 2:
(paknggan nyong mabuti ang song para malaman ang timing nito) 

e|-0---10~--8~--8-7---------|
B|-0--------------------7---|
G|-0------------------7---7-|
D|-2------------------------|
A|-2------------------------|
E|-0------------------------|

Guitar 1:

   Em         C9         Bm7        Em
e|-0-0-000000-3-3-333333-2-2-222222-0-0-000000-|
B|-0-0-000000-3-3-333333-3-3-333333-0-0-000000-|
G|-0-0-000000-0-0-000000-2-2-222222-0-0-000000-|
D|-2-2-222222-2-2-222222-4-4-444444-2-2-222222-|
A|-2-2-222222-3-3-333333-2-2-222222-2-2-222222-|
E|-0-0-000000-----------------------0-0-000000-|

Guitar 2:

e|----10-10-8---10-8-----------|
B|----------8------8--------7--|
G|--------------------7-7-7--7-|
D|-----------------------------|
A|-----------------------------|
E|-----------------------------|

Guitar 1:

  Am
e|-0-|
B|-1-|
G|-2-|
D|-2-|
A|-0-|
E|---|

Chorus:(start chorus sa word na "sayo")
Baka po isipin ninyo na kulang ang strum..
Hindi po..Baka po ang naririnig niyo ang drums..

Guitar 1:

   Em          D           G
e|-0--0--0--0--2--2--2--2--3--3--3--3--3--3--3--3-|
B|-0--0--0--0--3--3--3--3--3--3--3--3--3--3--3--3-|
G|-0--0--0--0--2--2--2--2--0--0--0--0--0--0--0--0-|
D|-2--2--2--2--0--0--0--0--0--0--0--0--0--0--0--0-|
A|-2--2--2--2--------------2--2--2--2--2--2--2--2-|
E|-0--0--0--0--------------3--3--3--3--3--3--3--3-|

   C9          Em          G
e|-3--3--3--3--0--0--0--0--3--3--3--3-|
B|-3--3--3--3--0--0--0--0--3--3--3--3-|
G|-0--0--0--0--0--0--0--0--0--0--0--0-|
D|-2--2--2--2--2--2--2--2--0--0--0--0-|
A|-3--3--3--3--2--2--2--2--2--2--2--2-|
E|-------------0--0--0--0--3--3--3--3-|

Guitar 2:(ginawa ko 'tong gnito pra mlaman nyo tmang timing)

e|------------------------------------------------|
B|------------------------------------------------|
G|------------------------------------------------|
D|------------------------------------------------|
A|------------------------------------------------|
E|------------------------------------------------|

e|------------------------------------|
B|------------------------------8-7---|
G|----------------------------------7-|
D|------------------------------------|
A|------------------------------------|
E|------------------------------------|

Ending:

Guitar 1:
Strumming Pattern: same as verses..
C9 - Bm7 - Am - G 2x

Guitar 2:

e|-------------2-3-5-7--10-8-7-8~----10-8-7-----------10-10s12-10-|
B|---------3-5------------------------------10~---7-8-------------|
G|-0-2-4-5--------------------------------------------------------|
D|----------------------------------------------------------------|
A|----------------------------------------------------------------|
E|----------------------------------------------------------------|

(continued)
e|---7---10--3-----10--8-7-8-----10s12-10-8-7-10-8-7---|
B|-----------5---8-------------8---------------------8-|
G|-----------------------------------------------------|
D|-----------------------------------------------------|
A|-----------------------------------------------------|
E|-----------------------------------------------------|

(continued)
e|--------3-2-3--5-3-5--7-5~-----------|
B|---------------------------8-7-8-----|
G|-2-4-5---------------------------7s5-|
D|-------------------------------------|
A|-------------------------------------|
E|-------------------------------------|

Legend:
      h - hammer on
      p - pull off
      s - slide
      ~ - vibrato
      ^ - bend
      + - harmonic

Lyrics:

Verse 1:
Nakikiusap, may pangungusap
Na ’yong iniwan ng ‘sang  saglit
May napaasa, dagling lumisan
Napapaamo kahit lumuluha

Verse 2:
Kumukuyakoy, parang palaboy
Namamalik-mata sa ilalim ng buwan
Nasa isang tabi, ang lalim ng gabi
Gusto kong umuwi na lang sa bahay

Refrain:
Kasabay ng isang tinig ay nakita ka
Na sana ay wala nang katapusan pa
Pero umiwas ka

Chorus:
Nang dahil sa’yo  sa himig ng aking gitara
Nang dahil sa’yo ako ay malaya na

-------------------------------------EnD------------------------------------
| ------------------------------------------------------------------------ |
| |        Tnx...Plsss rate this tab of mine...Comentz dN poH..          | |
| |     Hi 2 all those from NCSHS(Naga City Science High School)..       | |
| ------------------------------------------------------------------------ |
----------------------------------------------------------------------------
         ©Copyright2007©       Robert Simon Uy™        ®Registered®





Comments


Popular Hale tabs & chords
Kahit Pa 1 Bass Tabs
Wishing Bass Tabs
Wishing 3 Bass Tabs
Day You Said Goodnight 3 Chords
Empty Tears, Empty Heart Chords
Here Tonight Chords
One Moment Chords
Pitong Araw 1 Chords
Bahay Kubo Tabs
Broken Sonnet 5 Tabs


Song lyrics



↑ Back to top | Tablatures and chords are parodies/interpretations of the original songs. You may use it for private study, scholarship, research or language learning purposes only
© 2014 AZChords.com Contact us | Privacy policy | DMCA | Add/correct tabs | Request tabs | Top 50 tabs