» » »

Hale, Bahay Kubo Tabs (ver.4)

Artists:  A B C D E F G H I J K L M N O P Q R S T U V W X Y Z # 

Bahay Kubo Tabs (ver.4)

Hale Tabs
 Rating:
4/5 (4 votes)
Bahay Kubo lessons Tabs too difficult? Try these video lessons and learn fast
                

Tuning: Standard

Intro/Verse 1:
e|-2--2--2--2---6--6--6--6----| *Repeat until chorus 
B|--0--0--0--0---0--0--0--0---| 
G|----3--3--3--3---4--4--4--4-|  
D|----------------------------|
A|----------------------------|
E|----------------------------|

Fill before Chorus:
e|------------------| *This gets louder with each strum
B|------------------|
G|-4444444444444444-|
D|-4444444444444444-|
A|-2222222222222222-|
E|------------------|
   ........

Chorus:
e|-------------------444444444-222222222-| *Repeat 4x
B|-------------------444444444-222222222-|
G|-11111111-88888888-444444444-333333333-|
D|-22222222-99999999-666666666-444444444-|
A|-22222222-99999999-666666666-444444444-|
E|-------------------444444444-222222222-|

continuation 

e|------------------2222222222222222-|
B|------------------2222222222222222-|
G|-1111111111111111-3333333333333333-|
D|-2222222222222222-4444444444444444-|
A|-2222222222222222-4444444444444444-|
E|------------------2222222222222222-|

Verse 2

Lead Guitar:
e|-2--2--2--2---6--6--6--6----| *Repeat until chorus 
B|--0--0--0--0---0--0--0--0---| 
G|----3--3--3--3---4--4--4--4-|  
D|----------------------------|
A|----------------------------|
E|----------------------------|

Rhythm Guitar:
e|------------------2222222222222222--| *Repeat until chorus
B|------------------2222222222222222--| 
G|-4444444444444444-4444444444444444--|
D|-4444444444444444-4444444444444444--|
A|------------------------------------|
E|-4444444444444444-2222222222222222--|
     ..  ..  ..  .. 

Repeat Fill in
Repeat Chorus

Solo:
e|-------------------------------------------14-12-11-|
B|-1212121212-14-1616161616--12-141414141414----------|
G|----------------------------------------------------|
D|----------------------------------------------------|
A|----------------------------------------------------|
E|----------------------------------------------------|

continuation

e|-------------------------------------------14-12-11-9-|
B|-1212121212-14-1616161616--12-141414141414------------|
G|------------------------------------------------------|
D|------------------------------------------------------|
A|------------------------------------------------------|
E|------------------------------------------------------|

continuation

e|-------14------14--------14------14--------14------14--------14-12-11--|
B|-11-12----11-11----11-12----11-11---11-12----11-11-----11-12-----------|
G|-----------------------------------------------------------------------|
D|-----------------------------------------------------------------------|
A|-----------------------------------------------------------------------|
E|-----------------------------------------------------------------------|

continuation

e|-------14------14--------14------14--------14------14--------14-12-11-9-|
B|-11-12----11-11----11-12----11-11---11-12----11-11-----11-12------------|
G|------------------------------------------------------------------------|
D|------------------------------------------------------------------------|
A|------------------------------------------------------------------------|
E|------------------------------------------------------------------------|

Repeat Chorus 
Repeat Intro 

End
            
Submit corrections

comments powered by Disqus
↑ Back to top | Hale Tabs for Bahay Kubo. Lyrics for acoustic guitar and electric guitar. Tablatures and chords are parodies/interpretations of the original songs. You may use it for private study, scholarship, research or language learning purposes only