» » »

Hakan Hellstrom, Shelley Chords (ver.1)

Artists:  A B C D E F G H I J K L M N O P Q R S T U V W X Y Z # 

Shelley Chords (ver.1)

Hakan Hellstrom Tabs
Rating:
0/5 (0 votes)
Shelley lessons Tabs too difficult? Try these video lessons and learn fast
                -----------------------------------------------------------------------------
                             Shelley - Håkan Hellström
-----------------------------------------------------------------------------

Tuning: Standard

Plocket:

   A
e|-----------------|-----------------|-----------------|-----------------|
B|-----------------|-----------------|-----------------|-----------------|
G|-----4-4-----4-4-|-----2-2-----2-2-|-----4-4-----4-4-|---6-6-6-6-6-6-6-|
D|-2-2-----2-2-2-2-|-4-4-----4-4-4-4-|-2-2-2-2-2-2-2-2-|-2-2-2-2-2-2-2-2-|
A|-----------------|-----------------|-----------------|-----------------|
E|-----------------|-----------------|-----------------|-----------------|

   D
e|-----------------|-----------------|-----------------|-----------------|
B|-----------------|-----------------|-----------------|-----------------|
G|-6s4-4p2-2---2-2-|-2h4---4s6-6-6-6-|-6s4-4p2-2---2-2-|-2h4---4s6-6-6-6-|
D|-0---0---0---0---|-0-----0---0-0-0-|-0---0---0---0---|-0-----0---0-0-0-|
A|-----------------|-----------------|-----------------|-----------------|
E|-----------------|-----------------|-----------------|-----------------|

A
Släng ner nyckeln min fina
A                           D
Och få mig av den här jävla gatan
D
Har stått i regnet så länge att jag börjat krympa
A
Att drunkna är inte så illa
A                                   D
Om det får en att drömma och hoppas på
D
Att en seglande båt ska komma

F#m                       E
Och vi går ut och brinner upp i natten
A
Och skyller allting på våra fyllehuven
F#m                E
Undanflykter och självanklagan
A                     F#m
Jag ser domen i dina ögon
         E
Jag ser domen i dina ögon

Du kanske kommer förstå

Ser hela stan sjunka
Som titanic med alla ljusen tända
Åååh, en sån där natt då vi behöver någonting
Som hjälper en över svarta vatten

Åååh, och vi går ut och brinner upp i natten
Och skyller allting på våra fyllehuven
Undanflykter och självanklagan
Jag ser domen i dina ögon
Jag ser domen i dina ögon

Åååh
Åååh
Och vi går ut och brinner upp i natten
Och skyller allting på våra fyllehuven
Undanflykter och självanklagan
Jag ser domen i dina ögon
Jag ser domen i dina ögon

Outro:  |D      |D     |A      |A      |
        |F#m    |E     |A
            
Submit corrections

comments powered by Disqus
↑ Back to top | Hakan Hellstrom Chords for Shelley. Lyrics for acoustic guitar and electric guitar. Tablatures and chords are parodies/interpretations of the original songs. You may use it for private study, scholarship, research or language learning purposes only