» » »

Stolen Bass tabs (ver.1)

Artists:  A B C D E F G H I J K L M N O P Q R S T U V W X Y Z # 

Stolen Bass tabs (ver.1)

Hairless Mary
Rating:
0/5 (0 votes)

Hard to play? Try these video lessons and learn fast.
                Band-Hairless Mary
Song-Stolen 
CD-Do You Know the Secret?
Albino Apache Records

Standard Tuning 5-String (B,E,A,D,G)

 º -Harmonic 
 s -Slap
 / -Slide
 x -mute

	The Harmonic Slide takes a little time to do right. Just sound the Harmonic and in a quick motion press down and slide. The Harmonic doesn't really slide but done quick enough it can sound great. Remember not to pick the note you slide into.

Intro. Guitars only
                 
G:|---------|
D:|---------|
A:|---------|
E:|-3/12\3--|
B:|---------|

4x        º       º  º Harmonic Slide 
G:|----------------------|
D:|----------------------|
A:|----------------------|
E:|--0-0-12--0-0-12-x5\2-|
B:|----------------------|

Verse 1 -2x

3x
G:|-------------------------------|
D:|-----------------------------*-|
A:|-------------------------------|
E:|-0h2-2-2-2---x0h2-2-2-2-1-3--*-|
B:|-------------------------------|

G:|-----------------|
D:|-----------------|
A:|-----------------|
E:|-0h2-5-5-5-5-5-5-|
B:|-----------------|

Chorus  

4x        º       º  º Harmonic Slide 
G:|----------------------|
D:|----------------------|
A:|----------------------|
E:|--0-0-12--0-0-12-x5\2-|
B:|----------------------|

Verse 2 -2x

3x
G:|-------------------------------|
D:|-----------------------------*-|
A:|-------------------------------|
E:|-0h2-2-2-2---x0h2-2-2-2-1-3--*-|
B:|-------------------------------|

G:|---------------------|
D:|---------------------|
A:|---------------------|
E:|-0h2-x5--5-5-7--7-7-7|
B:|---------------------|

Chorus

Verse 3 [Same as Verse 2]

Chorus

Verse 4 [Same as Verse 2]

Bridge

Play 3x
G:|-------------------------------------------|
D:|-----------------------------------------*-|
A:|----------3-x1-x5--------------3-x1--------|
E:|-0h2-2-2----------3---0h2-2-2-------x1-3-*-|
B:|-------------------------------------------|

G:|-------------------------------------------|
D:|-------------------------------------------|
A:|----------3-x1-x5--------------3-x1--------|
E:|-0h2-2-2----------3---0h2-2-2-------0-1-3--|
B:|-------------------------------------------|

Let ring  º  º    º     º
G:|------------------------|
D:|------------------------|
A:|---------------7--------|
E:|-0----12-12---------24--|
B:|------------------------|

G:|---------|
D:|---------|
A:|---------|
E:|-3/12\3--|
B:|---------|
                                             Repeat ?x
G:|-------------------------------------------------------|
D:|-----------------------------------------------------*-|
A:|-------------------------1-----------------------------|
E:|-0h2-xx0h2-x0h2-x0h2-x00----0h2-xx0h2-x0h2-x0h2-x00--*-|
B:|----------------------------------------------------3--|
    s   sss   ss   ss   sss s  s   sss   ss   ss   sss s
            
Hard to play? Try these video lessons and learn fast. | Correct




comments powered by Disqus
↑ Back to top | Tablatures and chords are parodies/interpretations of the original songs. You may use it for private study, scholarship, research or language learning purposes only