>
 >
Genocide

Genocide Bass Tabs

Hairless Mary - Genocide chords, tabs, tablatures, lyrics

Guitar lessons | Add/correct | Request | Top 50 tabs Artists:  A B C D E F G H I J K L M N O P Q R S T U V W X Y Z 0-9

Genocide Bass Tabs – Hairless Mary

CD, Sheet music, Poster

Do you like Genocide? Share with your friends now
Bass Tabs
Band- Hairless Mary
Song Title- Genocide
Album-Not a Porno
Dropped-D Tuning


Intro/Verse 1              x?

G|--2----5----2----2----5--||
D|-0-0--3-3--0-0--3-3--2---||
A|-------------------------||
D|-------------------------|| 

Pre-Chorus              x2

G|------------------------|
D|------------------------|
A|------------------------|
D|-0-3-0--0-3-3-0--0-2-2--|

Chorus

G|---------------------------------||
D|---------------------------------||
A|-----------------------------5---||
D|-0-3-3--0-2-3--0-3-3-2-2-5-5--5\-||

G|----------------------------------||----||
D|----------------------------------||--5-||
A|-----------------------------5-5--||-5--||
D|-0-3-3--0-2-3--0-3-3-2-2-5-5----5-||----||


Verse 2                    x?

G|--2----5----2----2----5--||
D|-0-0--3-3--0-0--3-3--2---||
A|-------------------------||
D|-------------------------|| 

G|--2----5----2----2----7--||
D|-0-0--3-3--0-0--3-3-/5-5\||
A|-------------------------||
D|-------------------------||

Pre-Chorus              x2

G|------------------------|
D|------------------------|
A|------------------------|
D|-0-3-0--0-3-3-0--0-2-2--|

Chorus 2                           X?

G|---------------------------------||
D|---------------------------------||
A|-----------------------------5---||
D|-0-3-3--0-2-3--0-3-3-2-2-5-5--5\-||

G|----------------------------------||----||
D|----------------------------------||--5-||
A|-----------------------------5-5--||-5--||
D|-0-3-3--0-2-3--0-3-3-2-2-5-5----5-||----||

Bridge
                                        x?
G|------------2--------------2---------5-|
D|-0-2h3p2-0---3--0-2h3p2-0---3-2-0--3---|
A|---------------------------------------|
D|---------------------------------------|
                                          x1
G|------------5-----------------5--------8-|
D|-0-5h6p5-0---6----0-5h6p5-0----6-5-0--6--|
A|-----------------------------------------|
D|-----------------------------------------|
                                         X1
G|------------5---------------5-----------|
D|-0-5h6p5-0---6--0-5h6p5-0----6-5-0--3p2-|
A|----------------------------------------|
D|----------------------------------------|
                                        x?
G|------------2--------------2---------5-|
D|-0-2h3p2-0---3--0-2h3p2-0---3-2-0--3---|
A|---------------------------------------|
D|---------------------------------------|
                                          x?
G|-----------------------------------------|
D|------------2-----------------2--------5-|
A|-0-2h3p2-0---3----0-2h3p2-0----3-2-0--3--|
D|-----------------------------------------|
                                        x1
G|---------------------------------------|
D|------------2-----------------2--------|
A|-0-2h3p2-0---3----0-2h3p2-0----3-2-0--2|
D|---------------------------------------|

Pre-Chorus                      x2
G|-------------------------------|
D|-------------------------------|
A|---------------------------5---|
D|-0-3-3--0-2--3-3--2-2--5-5--5\-| 

G|--------------------------------|
D|--------------------------------|
A|---------------------------5-5--|
D|-0-3-3--0-2--3-3--2-2--5-5----5-| 


Chorus

G|---------------------------------|
D|---------------------------------|
A|-----------------------------5---|
D|-0-3-3--0-2-3--0-3-3-2-2-5-5--5\-|

G|----------------------------------|
D|----------------------------------|
A|-----------------------------5-5--|
D|-0-3-3--0-2-3--0-3-3-2-2-5-5----5-|
                                       x?
G|---------------------------------------|
D|----2-2-------------2-2----------5--3--|
A|-0-------0-2-3-0--------3-2-0-----0--0-|
D|---------------------------------------|
			         x?	
G|--------------------------------|
D|--------------------------------|
A|---------------------------5-5--|
D|-0-3-3--0-2--3-3--2-2--5-5----5-|

Outro
			    	    x?
G|-----------------------------------|
D|----2-2-----------2-2--------5--3--|
A|-0-------0-2-3-0------3-2-0---0--0-|
D|-----------------------------------|

G|---------------------------------------|---|
D|----2-2-------------2-2----------5--3--|-2-|
A|-0-------0-2-3-0--------3-2-0-----0--0-|---|
D|---------------------------------------|---|





Comments


Popular Hairless Mary tabs & chords
Beauty Is The Beast Bass Tabs
E V O L Bass Tabs
Evol Bass Tabs
House Of Pain Bass Tabs
Sara Bass Tabs
Stolen Bass Tabs


Song lyrics



↑ Back to top | Tablatures and chords are parodies/interpretations of the original songs. You may use it for private study, scholarship, research or language learning purposes only
© 2014 AZChords.com Contact us | Privacy policy | DMCA | Add/correct tabs | Request tabs | Top 50 tabs