>
 >
Beauty Is The Beast

Beauty Is The Beast Bass Tabs

Hairless Mary - Beauty Is The Beast chords, tabs, tablatures, lyrics

Guitar lessons | Add/correct | Request | Top 50 tabs Artists:  A B C D E F G H I J K L M N O P Q R S T U V W X Y Z 0-9

Beauty Is The Beast Bass Tabs – Hairless Mary

CD, Sheet music, Poster

Do you like Beauty Is The Beast? Share with your friends now
Bass Tabs
Band-Hairless Mary
Song-Beauty is the Beast
CD-Tequila Gunpowder 
Albino Apache Records

Dropped-D Tuning 4-String (D,A,D,G)

\-Slide
x-Muted note
h-Hammer on
|-3-| -Triplet

Intro/Chorus

G:|---------------------------|
D:|--------0h2----------------|
A:|-0-3h5-x----x3h5-x2h3------|
D:|----------------------x4h5-|

Verse

G:|---------------------9-|
D:|------------------99---|
A:|-0--3-x\2-x/5-x/7------|
D:|-----------------------|

G:|---------------------|
D:|---------------------|
A:|-0--3-x\2-x/5-x/7----|
D:|------------------x5-|

Bridge

G:|---------------------------|
D:|---------------------------|
A:|--------3-----0-5h7--------|
D:|-0-3h5-0-0-5h7-----0-5h6---|

Ending

G:|-----------------------|----------------------|
D:|*----------------------|---------------------*|
A:|*-------3-------3------|-------3-------3-----*|
D:|--0-3h5--00-3h5--00-55-|-0-3h5--00-3h5--00-5--|

G:|-----|
D:|-----|
A:|-----|
D:|--0--|





Comments


Popular Hairless Mary tabs & chords
E V O L Bass Tabs
Evol Bass Tabs
Genocide Bass Tabs
House Of Pain Bass Tabs
Sara Bass Tabs
Stolen Bass Tabs


Song lyrics



↑ Back to top | Tablatures and chords are parodies/interpretations of the original songs. You may use it for private study, scholarship, research or language learning purposes only
© 2014 AZChords.com Contact us | Privacy policy | DMCA | Add/correct tabs | Request tabs | Top 50 tabs