» » »

Hail The Villain, Take Back The Fear Tabs (ver.4)

Artists:  A B C D E F G H I J K L M N O P Q R S T U V W X Y Z # 

Take Back The Fear Tabs (ver.4)

Hail The Villain Tabs
 Rating:
4.2/5 (5 votes)
Take Back The Fear lessons Tabs too difficult? Try these video lessons and learn fast
1
                ----------------------------------------------------------------------------
                        Take Back The Fear – Hail The Villain
----------------------------------------------------------------------------

K, so before the people start learning this tab, this is my first tab. Had to put 
about 30 mins of work to figure this out, but its really simple (thank god). SO 
basiclly listen to this Toronto based band. SUPPORT!!!


Tuning: Standard ( EADGBE )

  *Verse*
  Guitar 1
e|----------------------------------------------------------|
B|----------------------------------------------------------|
G|------------------------------------------------------2---| 3 TImes
D|4---------------4---------------4---------------4-4/5-2---|
A|4------0-2-0----4-----0-2-0-----4------0-2-0----4-4/5-0---|
E|2--2-4-------4--2--2-4-------4--2--2-4-------4--2-2/3-----|

e|---------------------------------------|-----------|
B|---------------------------------------|-----------|  Intro 1 time, then
G|---------------------------------------|--------2--| 
D|--4-4----------------------------------|--4-4/5-2--|  <---- repeat 
A|--4-4---(do this 7 times, then .....)--|--4-4/5-0--|
E|--2-2----------------------------------|--2-2/3----|

   *Chorus*
e|---------------------------------|  
G|---------------------------------|    2 Times
D|-4-4-55555555----4-4-55555555----|
A|-4-4-55555555----4-4-55555555----|
E|-2-2-33333333----2-2-33333333----|

   pattern:
verse
chorus
verse
chorus
bridge...(still not done)
verse
            
Submit corrections

comments powered by Disqus
↑ Back to top | Hail The Villain Tabs for Take Back The Fear. Lyrics for acoustic guitar and electric guitar. 1 Tablatures and chords are parodies/interpretations of the original songs. You may use it for private study, scholarship, research or language learning purposes only