» » »

Hail The Villain, Runaway Bass tabs (ver.1)

Artists:  A B C D E F G H I J K L M N O P Q R S T U V W X Y Z # 

Runaway Bass tabs (ver.1)

Hail The Villain Tabs
 Rating:
4.2/5 (5 votes)
Runaway lessons Tabs too difficult? Try these video lessons and learn fast
                Hey Guys! This is my tab to the song Runaway by Hail the Villain. The Song is pretty 
simple, but the breakdown was hard to figure out. I hope it's correct… :)
Please don’t forget to rate it, check my other tabs and enjoy!
Main Riff
G|------------------|------------------|
D|------------------|------------------|
A|------------------|------------------|
E|------------------|------------------|
H|2-2-2-22---0---0--|5-5-5-55---0---0--|

Main Riff to Verse
G|------------------|------------------|
D|------------------|------------------|
A|------------------|------------------|
E|------------------|------------------|
H|2-2-2-22---0---0--|5-5-5-55--00000000|

Verse
G|----------------|----------------|----------------|----------------|
D|----------------|----------------|----------------|----------------|
A|----------------|----------------|----------------|2222222222222222|
E|----------------|5555555555555555|2222222222222222|----------------|
H|2222222222222222|----------------|----------------|----------------|

Verse to Main Riff
G|----------------|----------------|----------------|----------------|
D|----------------|----------------|----------------|----------------|
A|----------------|----------------|----------------|2-2-2-2-2-2-2-2-|
E|----------------|5555555555555555|2222222222222222|----------------|
H|2222222222222222|----------------|----------------|----------------|

Breakdown Part 1
G|----------------|----------------|
D|----------------|----------------|
A|----------------|----------------|
E|--------3-3333xx|x-3333xxx-3333xx|
H|22225555--------|----------------|

Breakdown Part 2
G|----------------|----------------|
D|----------------|----------------|
A|----------------|----------------|
E|--------3-3333xx|x-3333xxx-3333xx|
H|2~~~5~~~--------|----------------|

Verse Variation
G|----------------|----------------|----------------|----------------|
D|----------------|----------------|----------------|----------------|
A|----------------|----------------|----------------|2~~~~~~~~~~~~~~~|
E|----------------|5~~~~~~~~~~~~~~~|2~~~~~~~~~~~~~~~|----------------|
H|2~~~~~~~~~~~~~~~|----------------|----------------|----------------|

Outro (mostly the same as Main Riff)
G|------------------|------------------|
D|------------------|------------------|
A|------------------|------------------|
E|------------------|------------------|
H|2-2-2-2---0---0---|5-5-5-5---0---0---|

Order:
Main Riff
Main Riff to Verse
Verse
Verse to Main Riff
Main Riff x3
Main Riff to Verse
Verse
Verse to Main Riff
Main Riff x4
Breakdown Part 1
Breakdown Part 2 (3x)
Verse Variation
Verse to Main Riff
(Little Pause)
Main Riff x4
Outro x2
            
Submit corrections

comments powered by Disqus
↑ Back to top | Hail The Villain Bass for Runaway. Lyrics for acoustic guitar and electric guitar. Tablatures and chords are parodies/interpretations of the original songs. You may use it for private study, scholarship, research or language learning purposes only