» » »

Hail The Villain, Pyro Tabs (ver.1)

Artists:  A B C D E F G H I J K L M N O P Q R S T U V W X Y Z # 

Pyro Tabs (ver.1)

Hail The Villain Tabs
Rating:
5/5 (2 votes)
Pyro lessons Tabs too difficult? Try these video lessons and learn fast
                Hail the Villain
Population: Declining (2010)

Words & Music by Hail the Villain

GTR I - Drop C# Tuning "Joseph Stamp" (d#,A#,F#,C#,G#,C#)
GTR II - Drop C# Tuning "Joseph Stamp" (d#,A#,F#,C#,G#,C#)

Intro

   GTR I,II
d#|-------------------------|
A#|-------------------------|
F#|-------------------------|
C#|--------------------x--x-|
G#|--------------------x--x-|
C#|--------------------x--x-|

Chorus

   GTR I
d#|-------------------------------------------------|
A#|-------------------------------------------------|
F#|--7----------------------------------------------|
C#|--7-----6-----7-------10----10-10--7-----6--5--3-|
G#|--5-----6-----7-----x-10----10-10--7-----6--5--3-|
C#|--------6-----7-----x-10----10-10--7-----6--5--3-|
  |
  |GTR II
d#|-------------------------------------------------|
A#|-------------------------------------------------|
F#|-------------------------------------------------|
C#|--0-----6-----7-------10----10-10--7-----6--5--3-|
G#|--0-----6-----7-----x-10----10-10--7-----6--5--3-|
C#|--0-----6-----7-----x-10----10-10--7-----6--5--3-|

   GTR I
d#|-------------------------------------------------|
A#|-------------------------------------------------|
F#|--7----------------------------------------------|
C#|--7-----6-----7-------10----10-10--7-----6--5--3-|
G#|--5-----6-----7-----x-10----10-10--7-----6--5--3-|
C#|--------6-----7-----x-10----10-10--7-----6--5--3-|
  |
  |GTR II
d#|-------------------------------------------------|
A#|-------------------------------------------------|
F#|-------------------------------------------------|
C#|--0-----6-----7-------10----10-10--7-----6--5--3-|
G#|--0-----6-----7-----x-10----10-10--7-----6--5--3-|
C#|--0-----6-----7-----x-10----10-10--7-----6--5--3-|

   GTR I
d#|-------------------------------------------------|
A#|-------------------------------------------------|
F#|--7----------------------------------------------|
C#|--7-----6-----7-------10----10-10--7-----6--5--3-|
G#|--5-----6-----7-----x-10----10-10--7-----6--5--3-|
C#|--------6-----7-----x-10----10-10--7-----6--5--3-|
  |
  |GTR II
d#|-------------------------------------------------|
A#|-------------------------------------------------|
F#|-------------------------------------------------|
C#|--0-----6-----7-------10----10-10--7-----6--5--3-|
G#|--0-----6-----7-----x-10----10-10--7-----6--5--3-|
C#|--0-----6-----7-----x-10----10-10--7-----6--5--3-|

   GTR I
d#|-------------------------------------------------|
A#|-------------------------------------------------|
F#|--7----------------------------------------------|
C#|--7-----6-----7-------10----10-10--7-----6--5--3-|
G#|--5-----6-----7-----x-10----10-10--7-----6--5--3-|
C#|--------6-----7-----x-10----10-10--7-----6--5--3-|
  |
  |GTR II
d#|-------------------------------------------------|
A#|-------------------------------------------------|
F#|-------------------------------------------------|
C#|--0-----6-----7-------10----10-10--7-----6--5--3-|
G#|--0-----6-----7-----x-10----10-10--7-----6--5--3-|
C#|--0-----6-----7-----x-10----10-10--7-----6--5--3-|

Verse

   GTR I,II
d#|-------------------------------------------------|
A#|-------------------------------------------------|
F#|-------------------------------------------------|
C#|-------------------------------------------------|
G#|--0--0--0--0--0--0--0--0--0--0--0--0--0--0--0--0-|
C#|--0--0--0--0--0--0--0--0--0--0--0--0--0--0--0--0-|
     .  .  .  .  .  .  .  .  .  .  .  .  .  .  .  .

   GTR I,II
d#|-------------------------------------------------|
A#|-------------------------------------------------|
F#|-------------------------------------------------|
C#|-----------------------------------7-----6--5--3-|
G#|--0--0--0--0--0--0--0--0--0--0--0--7-----6--5--3-|
C#|--0--0--0--0--0--0--0--0--0--0--0--7-----6--5--3-|
                                                   
   GTR I,II
d#|-------------------------------------------------|
A#|-------------------------------------------------|
F#|-------------------------------------------------|
C#|-------------------------------------------------|
G#|--0--0--0--0--0--0--0--0--0--0--0--0--0--0--0--0-|
C#|--0--0--0--0--0--0--0--0--0--0--0--0--0--0--0--0-|
     .  .  .  .  .  .  .  .  .  .  .  .  .  .  .  .

   GTR I,II
d#|-------------------------------------------------|
A#|-------------------------------------------------|
F#|-------------------------------------------------|
C#|-----------------------------------7-----6--5--3-|
G#|--0--0--0--0--0--0--0--0--0--0--0--7-----6--5--3-|
C#|--0--0--0--0--0--0--0--0--0--0--0--7-----6--5--3-|
                                                   
Pre Chorus

   GTR I,II
d#|-------------------------------------------------|
A#|-------------------------------------------------|
F#|-------------------------------------------------|
C#|--0-----0-----0-----0-----0-----0-----0-----0----|
C#|--0-----0-----0-----0-----0-----0-----0-----0----|
C#|--0-----0-----0-----0-----0-----0-----0-----0----|

   GTR I,II
d#|-------------------------------------------------|
A#|-------------------------------------------------|
F#|-------------------------------------------------|
C#|--0-----0-----0-----0-----0-----0--7-----6--5--3-|
C#|--0-----0-----0-----0-----0-----0--7-----6--5--3-|
C#|--0-----0-----0-----0-----0-----0--7-----6--5--3-|

   GTR I,II
d#|-------------------------------------------------|
A#|-------------------------------------------------|
F#|-------------------------------------------------|
C#|--0-----0-----0-----0-----0-----0-----0-----0----|
C#|--0-----0-----0-----0-----0-----0-----0-----0----|
C#|--0-----0-----0-----0-----0-----0-----0-----0----|

   GTR I,II
d#|-------------------------------------------------|
A#|-------------------------------------------------|
F#|--7--7--7--7--7--7--7--7--7--7--7----------------|
C#|--7--7--7--7--7--7--7--7--7--7--7--7-----6--5--3-|
C#|--5--5--5--5--5--5--5--5--5--5--5--7-----6--5--3-|
C#|-----------------------------------7-----6--5--3-|

Chorus     - 1x
Verse      - 1x
Pre Chorus - 1x
Chorus     - 2x

Guitar Solo

   GTR I
d#|-0h4h5-0h4h5-0h4h5-0h4h5-0h4h5-0h4h5-0h4h5-0h4h5-|
A#|-------------------------------------------------|
F#|-------------------------------------------------|
C#|-------------------------------------------------|
G#|-------------------------------------------------|
C#|-------------------------------------------------|
  |
  |GTR II
d#|-------------------------------------------------|
A#|-------------------------------------------------|
F#|-------------------------------------------------|
C#|--6--6--6--6--6--6--6--6--6--6--6--6--6--6--6--6-|
G#|--6--6--6--6--6--6--6--6--6--6--6--6--6--6--6--6-|
C#|--6--6--6--6--6--6--6--6--6--6--6--6--6--6--6--6-|

   GTR I
d#|-0h4h5-0h4h5-0h4h5-0h4h5-------------------------|
A#|--------------------------6~---------------------|
F#|-------------------------------------------------|
C#|-------------------------------------------------|
G#|-------------------------------------------------|
C#|-------------------------------------------------|
  |
  |GTR II
d#|-------------------------------------------------|
A#|-------------------------------------------------|
F#|-------------------------------------------------|
C#|--7--7--7--7--7--7--7--7-10-10-10-10-10-10-10-10-|
G#|--7--7--7--7--7--7--7--7-10-10-10-10-10-10-10-10-|
C#|--7--7--7--7--7--7--7--7-10-10-10-10-10-10-10-10-|

   GTR I
d#|-0h4h5-0h4h5-0h4h5-0h4h5-0h4h5-0h4h5-0h4h5-0h4h5-|
A#|-------------------------------------------------|
F#|-------------------------------------------------|
C#|-------------------------------------------------|
G#|-------------------------------------------------|
C#|-------------------------------------------------|
  |
  |GTR II
d#|-------------------------------------------------|
A#|-------------------------------------------------|
F#|-------------------------------------------------|
C#|--6--6--6--6--6--6--6--6--6--6--6--6--6--6--6--6-|
G#|--6--6--6--6--6--6--6--6--6--6--6--6--6--6--6--6-|
C#|--6--6--6--6--6--6--6--6--6--6--6--6--6--6--6--6-|

   GTR I
d#|-0h4h5-0h4h5-0h4h5-0h4h5-------------------------|
A#|--------------------------6~---------------------|
F#|-------------------------------------------------|
C#|-------------------------------------------------|
G#|-------------------------------------------------|
C#|-------------------------------------------------|
  |
  |GTR II
d#|-------------------------------------------------|
A#|-------------------------------------------------|
F#|-------------------------------------------------|
C#|--7--7--7--7--7--7--7--7-10-10-10-10-10-10-10-10-|
G#|--7--7--7--7--7--7--7--7-10-10-10-10-10-10-10-10-|
C#|--7--7--7--7--7--7--7--7-10-10-10-10-10-10-10-10-|

   GTR I
d#|-------------------------------------------------|
A#|-------------------------------------------------|
F#|-------------------------------------------------|
C#|-0h5h7-0h5h7-0h5h7-0h5h7-0h5h7-0h5h7-0h5h7-0h5h7-|
G#|-------------------------------------------------|
C#|-------------------------------------------------|
  |
  |GTR II
d#|-------------------------------------------------|
A#|-------------------------------------------------|
F#|-------------------------------------------------|
C#|--6--6--6--6--6--6--6--6--6--6--6--6--6--6--6--6-|
G#|--6--6--6--6--6--6--6--6--6--6--6--6--6--6--6--6-|
C#|--6--6--6--6--6--6--6--6--6--6--6--6--6--6--6--6-|

   GTR I
d#|-------------------------------------------------|
A#|-------------------------------------------------|
F#|-------------------------------------------------|
C#|-0h5h7-0h5h7-0h5h7-0h5h7--3~---------------------|
G#|-------------------------------------------------|
C#|-------------------------------------------------|
  |
  |GTR II
d#|-------------------------------------------------|
A#|-------------------------------------------------|
F#|-------------------------------------------------|
C#|--7--7--7--7--7--7--7--7-10-10-10-10-10-10-10-10-|
G#|--7--7--7--7--7--7--7--7-10-10-10-10-10-10-10-10-|
C#|--7--7--7--7--7--7--7--7-10-10-10-10-10-10-10-10-|

   GTR I
d#|-------------------------------------------------|
A#|-------------------------------------------------|
F#|-------------------------------------------------|
C#|-0h5h7-0h5h7-0h5h7-0h5h7-0h5h7-0h5h7-0h5h7-0h5h7-|
G#|-------------------------------------------------|
C#|-------------------------------------------------|
  |
  |GTR II
d#|-------------------------------------------------|
A#|-------------------------------------------------|
F#|-------------------------------------------------|
C#|--6--6--6--6--6--6--6--6--6--6--6--6--6--6--6--6-|
G#|--6--6--6--6--6--6--6--6--6--6--6--6--6--6--6--6-|
C#|--6--6--6--6--6--6--6--6--6--6--6--6--6--6--6--6-|

   GTR I
d#|-------------------------------------------------|
A#|-------------------------------------------------|
F#|-------------------------------------------------|
C#|-0h5h7-0h5h7-0h5h7-0h5h7--3~---------------------|
G#|-------------------------------------------------|
C#|-------------------------------------------------|
  |
  |GTR II
d#|-------------------------------------------------|
A#|-------------------------------------------------|
F#|-------------------------------------------------|
C#|--7--7--7--7--7--7--7--7-10-10-10-10-10-10-10-10-|
G#|--7--7--7--7--7--7--7--7-10-10-10-10-10-10-10-10-|
C#|--7--7--7--7--7--7--7--7-10-10-10-10-10-10-10-10-|

Chorus - 2x (hold last note on last chorus)

| b  bend
| r  release bend
|trp triplet
|PH. pinch harmonic
|fbk feedback
| .  palm-mute
| /  slide up
| \  slide down
| h  hammer-on
| p  pull-off
| ~  vibrato
|(7) harmonic
| x  Mute note
===============================================================================
            
Submit corrections

comments powered by Disqus
↑ Back to top | Hail The Villain Tabs for Pyro. Lyrics for acoustic guitar and electric guitar. Tablatures and chords are parodies/interpretations of the original songs. You may use it for private study, scholarship, research or language learning purposes only