» » »

Pyro Bass tabs (ver.1)

Artists:  A B C D E F G H I J K L M N O P Q R S T U V W X Y Z # 

Pyro Bass tabs (ver.1)

Hail The Villain
Rating:
0/5 (0 votes)

Hard to play? Try these video lessons and learn fast.
                Hey Guys! This is my Bass Tab to Hail The Villain's Pyro!
Enjoy and don't forget to rate my tab! ;)

Intro/Main Riff
G|----------------|
D|----------------|
A|-------2-22-----| 4x
E|--3-4-3----4-320|
B|2---------------|
  E E E SE SSE SSS

Verse
G|----------------|----------------|----------------|----------------|
D|----------------|----------------|----------------|----------------|
A|----------------|----------------|----------------|----------------| 2x
E|----------------|----------------|----------------|------------4320|
B|2222222222222222|2222222222222222|2222222222222222|222222222222----|
  SSSSSSSSSSSSSSSS SSSSSSSSSSSSSSSS SSSSSSSSSSSSSSSS SSSSSSSSSSSSSSSS

G|----------------|----------------|----------------|----------------|
D|----------------|----------------|----------------|----------------|
A|----------------|----------------|----------------|----------------| 
E|----------------|----------------|----------------|--------44332200|
B|2-2-2-2-2-2-2-2-|2-2-2-2-2-2-2-2-|2-2-2-2-2-2-2-2-|2-2-2-2---------|
  E E E E E E E E  E E E E E E E E  E E E E E E E E  E E E E SSSSSSSS

G|----------------|----------------|----------------|----------------|
D|----------------|----------------|----------------|----------------|
A|----------------|----------------|----------------|----------------| 
E|----------------|----------------|4444444444444444|4444444444444320|
B|2-2-2-2-2-2-2-2-|2-2-2-2-2-2-2-2-|----------------|----------------|
  E E E E E E E E  E E E E E E E E  SSSSSSSSSSSSSSSS SSSSSSSSSSSSSSSS

Main Riff
Verse
Main Riff

Main Riff Variation
G|----------------|
D|----------------|
A|4------2-22-----| 4x
E|--3-4-3----4-432|
B|----------------|
  E E E SE SSE SSS

Bridge
G|----------------|----------------|----------------|----------------|
D|----------------|----------------|----------------|----------------|
A|----------------|----------------|----------------|2222222222222222| 4x
E|3333333333333333|3333333333333333|4444444444444444|----------------|
B|----------------|----------------|----------------|----------------|
  SSSSSSSSSSSSSSSS SSSSSSSSSSSSSSSS SSSSSSSSSSSSSSSS SSSSSSSSSSSSSSSS

Main Riff Variation 8x
Outro
G|----------------|
D|----------------|
A|----------------|
E|----------------|
B|2~~~~~~~~~~~~~~~|


Legend:
F = Full note
H = Half note
Q = Quarter note
E = Eighth note
S = Sixteenth note
. = makes the note a half longer
            
Hard to play? Try these video lessons and learn fast. | Correct




comments powered by Disqus
↑ Back to top | Tablatures and chords are parodies/interpretations of the original songs. You may use it for private study, scholarship, research or language learning purposes only