» » »

Hail Social, Come Out Tonight Bass tabs (ver.1)

Artists:  A B C D E F G H I J K L M N O P Q R S T U V W X Y Z # 

Come Out Tonight Bass tabs (ver.1)

Hail Social Tabs
Rating:
5/5 (1 vote)
Come Out Tonight lessons Tabs too difficult? Try these video lessons and learn fast
                (0:02)
G|--------5-5---------5-5-7-7-5-5-|7-7-----------------------------|
D|----7-7-------------------------|------------------------5-5-7-7-|
A|--------------------------------|--------5-5---------7-7---------|
E|5-5---------8-8-----------------|--------------------------------|

(0:41)
G|--------------------------------|--------------------------------|
D|--------------------------------|--------------------------------|
A|----7---7-------5---5---5---5---|----3---3-------5---5---5---5---|
E|5-----5---5-3-----3---3---3---3-|1-----1---1-3-----3---3---3---3-|

G|--------------------------------|--------------------------------|
D|--------------------------------|--------------------------------|
A|--------------------------------|--------------------------------|
E|5-5---------3~------------------|1-1-1-1-1-1-1-1-1-1-1-1-1-1-1-1-|

G|--------------------------------|
D|--------------------------------|
A|--------------------------------|
E|3-3-3-3-3-3-3-3-3-3-3-3-3-3-3-3-|

(0:58) - Same as (0:02)

(1:37) - Same as (0:41)

(1:54)
G|--------------------------------|--------------------4-----------|
D|--------7---5-----------7---5---|--------7---5---7-------7---5---|
A|--------------------------------|--------------------------------|
E|5-5---5---------5-5---5---------|5-5---5-------------------------|

G|----------------------------0---|--------------------------------|
D|--------7---5-----------3-------|--------------------------------|
A|--------------------------------|--------------------------------|
E|3-3---3---------1-1---1---------|5-5---5-5-5---5-1-1---1-3-3---3-|

(2:21)
G|--------------------------------|--------------------------------|
D|--------------------------------|--------------------------------|
A|--------------------------------|--------------------------------|
E|1-1-1-1-1-1-1-1-1-1-1-1-1-1-1-1/|3-3-3-3-3-3-3-3-3-3-3-3-5-5-5\\\|

G|------------------------|
D|------------------------|
A|------------------------|
E|1-1-1-1-1-1-1-1-3---3---|

(2:43) - Same as (0:02)
            

comments powered by Disqus
↑ Back to top | Hail Social Bass for Come Out Tonight. Lyrics for acoustic guitar and electric guitar. Tablatures and chords are parodies/interpretations of the original songs. You may use it for private study, scholarship, research or language learning purposes only