» » »

That Boy That Girl Tabs (ver.3)

Artists:  A B C D E F G H I J K L M N O P Q R S T U V W X Y Z # 

That Boy That Girl Tabs (ver.3)

Hadouken
Rating:
5/5 (2 votes)

Hard to play? Try these video lessons and learn fast.
                This is my first tab, and i think i have cracked this songs main guitar areas. So any

// = slide
* = hit strings hard

Main riff

E:--------------------------|
B:--------------------------|
G:--------------------------|
D:7-7-10-10-7-7-10-10-7-7-7-|
A:7-7-10-10-7-7-10-10-7-7-7-|
E:5-5-8--8--5-5-8--8--5-5-5-|

E:--------------------------|
B:--------------------------|
G:--------------------------|
D:7-7-10-10-7-7-10-10-7*-7--|
A:7-7-10-10-7-7-10-10-7*-7--|
E:5-5-8--8--5-5-8--8--5*-5--|

Interludes

E:---------------------------|
B:---------------------------|
G:---------------------------|
D:7-7-7-7-7-7//8-8-8-8-8-8---|
A:7-7-7-7-7-7//8-8-8-8-8-8---|
E:5-5-5-5-5-5//6-6-6-6-6-6---|  x4
            
Hard to play? Try these video lessons and learn fast. | Correct




comments powered by Disqus
↑ Back to top | Tablatures and chords are parodies/interpretations of the original songs. You may use it for private study, scholarship, research or language learning purposes only