» » »

Hadouken, That Boy That Girl Tabs (ver.2)

Artists:  A B C D E F G H I J K L M N O P Q R S T U V W X Y Z # 

That Boy That Girl Tabs (ver.2)

Hadouken Tabs
 Rating:
4/5 (8 votes)
That Boy That Girl lessons Tabs too difficult? Try these video lessons and learn fast
                Guitar:
Main Riff:
E/---------------------------------|
B/---------------------------------|
G/---------------------------------|
D/--5-5-8-8-5-5-------8-8-8-8-5-5--|
A/--5-5-8-8-5-5-------8-8-8-8-5-5--|
E/--3-3-6-6-3-3-------6-6-6-6-3-3--|

Bridge:
E/---------------------------|
B/---------------------------|
G/---------------------------|
D/--5-5-6-6-5-5-6-6-5-5-6-6--|
A/--5-5-6-6-5-5-6-6-5-5-6-6--|
E/--3-3-4-4-3-3-4-4-3-5-4-4--|


Keys:
Main Riff:
E/----------------------------------|
B/----------------------------------|
G/----------------------------------|
D/--5-5-8-8-10-10-12-12-15-15-17-17-|
A/--5-5-8-8-10-10-12-12-15-15-17-17-|
E/--3-3-6-6-8--8--10-10-13-13-15-15-|
            
Submit corrections

comments powered by Disqus
↑ Back to top | Hadouken Tabs for That Boy That Girl. Lyrics for acoustic guitar and electric guitar. Tablatures and chords are parodies/interpretations of the original songs. You may use it for private study, scholarship, research or language learning purposes only