» » »

Hadouken, That Boy That Girl Bass tabs (ver.1)

Artists:  A B C D E F G H I J K L M N O P Q R S T U V W X Y Z # 

That Boy That Girl Bass tabs (ver.1)

Hadouken Tabs
Rating:
4/5 (1 vote)
That Boy That Girl lessons Tabs too difficult? Try these video lessons and learn fast
                ----------------------------------------------------------------------
----------------------------------------------------------------------


Tuning: EADG

CHORUS - COMES IN AFTER THE INDY CINDY BIT
         THE FIRST TIME

G|------------------|
D|------------------|
A|----11----1111----|
E|-33----33------33-|

VERSE

G|-----------------------|      
D|-----------------------|  
A|-----------------------|  
E|3-3-4-4-3-3-4-4-3-5-4-4|

KEYS

G|---------------------|
D|---------------------|
A|----11-33-55-88-1010-|
E|-33------------------|

I dont think theres even any bass in this song like by a
guitar n all tht but i was bored so here ye go. its not
great, its not good, but it'll do. It basicaly copies the
guitar tabs for this song but hey, boredom...

| /  slide up
| \  slide down
| h  hammer-on
| p  pull-off
| ~  vibrato
| +  harmonic
| x  Mute note
======================================================================
            
Submit corrections

comments powered by Disqus
↑ Back to top | Hadouken Bass for That Boy That Girl. Lyrics for acoustic guitar and electric guitar. Tablatures and chords are parodies/interpretations of the original songs. You may use it for private study, scholarship, research or language learning purposes only