» » »

Hadouken, Rebirth Bass tabs (ver.2)

Artists:  A B C D E F G H I J K L M N O P Q R S T U V W X Y Z # 

Rebirth Bass tabs (ver.2)

Hadouken Tabs
Rating:
4/5 (1 vote)
Rebirth lessons Tabs too difficult? Try these video lessons and learn fast
                This is my first tab so be kind with the ratings but be realistic ;)
(Not sure if I got the rhythms right but you can work it out)


Standard Tuning:
E,A,D,G
_______________________________________________________________________________________________
Intro:

G|----------------------|
D|----------------------| X24
A|-3--3--3--3-3-3-3-----|
E|----------------------|

G|-------------------------------| (NOTE: The 15s are what the synth plays)
D|-------------------------------|
A|-15-15---15-15-15--------------| X12
E|---------------------3--3--3---|

________________________________________________________________________________________________
Pre-Verse:

G|------------------------------------------------------------------|
D|------------------------------------------------------------------| X2
A|-3-3-3-3-3-3-3-3-3-3-3-3-3-3-3-3----------------------------------|
E|----------------------------------3-3-3-3-3-3-3-3-3-3-3-3-3-3-3-3-|
________________________________________________________________________________________________
Verse:
G|----------------------------------------------------------------------|
D|----------------------------------------------------------------------| continue through most of
A|-3-3-3-3-3-3-3-3-3-3-3-3-3-3-3-3--------------------------------------| the song.
E|----------------------------------3-3----3-3-3-3-3----3-3----3-3-3-3-3|
_________________________________________________________________________________________________
After verse where it goes into the strange voice:
(not certain about this one)

G|---------------|
D|---------------|
A|---------------|
E|-7-7-7-7-7-7---|
_________________________________________________________________________________________________
Break:
(haven't figured out yet)
_________________________________________________________________________________________________
After the break go back to the Pre-Verse and then the Verse for the rest of the song.
________________________________________________________________________________________________

Thanks
_________________________________________________________________________________________________
            

comments powered by Disqus
↑ Back to top | Hadouken Bass for Rebirth. Lyrics for acoustic guitar and electric guitar. Tablatures and chords are parodies/interpretations of the original songs. You may use it for private study, scholarship, research or language learning purposes only