» » »

Hadouken, Rebirth Tabs (ver.1)

Artists:  A B C D E F G H I J K L M N O P Q R S T U V W X Y Z # 

Rebirth Tabs (ver.1)

Hadouken Tabs
Rating:
0/5 (0 votes)
Hard to play? Try these video lessons and learn fast.
                -------------------------------------------------------------------------------
-------------------------------------------------------------------------------

Tuning: Standard tuning: E,A,D,G,B,e

e|---------------------------------------------------------------------------|
B|---------------------------------------------------------------------------|
G|---------------------------------------------------------------------------|
D|--10-10-10------10-10-10-10----10-10-10------10-10-10-10-------------------|
A|--10-10-10------10-10-10-10----10-10-10------10-10-10-10-------------------|
E|--8--8--8-------8--8--8--8-----8--8--8-------8--8--8--8---8/12\8-----------|

e|------------------------------------| (NOTE: The 15s are what the synth plays)
B|------------------------------------|
G|------------------------------------|
D|----------------------3-3-3---------| X3
A|--15-15---15-15-15----3-3-3---------|
E|----------------------1-1-1---------|

e|------------------------------------| 
B|------------------------------------|
G|----------------------5-5-5---------|
D|----------------------5-5-5---------| X3
A|--15-15---15-15-15----3-3-3---------|
E|------------------------------------|

e|------------------------------------| 
B|------------------------------------|
G|----------------------5-------------|
D|----------------------5-5-3---------| X2
A|--15-15---15-15-15----3-5-3---------|
E|------------------------3-1---------|

-------------------------------------------------------------------------------

After the Drop the bass plays 2 bars on its own and then its into this:

e|------------------------------------------------------------------------| 
B|------------------------------------------------------------------------|
G|------------------------------------------------------------------------|
D|---5-5-5-5-5-5-5-5-5-5-5-5-5-5-5----------------------------------------| 
A|---3-3-3-3-3-3-3-3-3-3-3-3-3-3-3--3-3----3-3-3-3-3----3-3----3-3-3-3-3--|
E|----------------------------------3-3----3-3-3-3-3----3-3----3-3-3-3-3--|

Continue that through the rest of the song.

-------------------------------------------------------------------------------
After the verse (when the strange voice comes in) it goes into this:
e|-------------------| 
B|-------------------|
G|-------------------|
D|-------------------|
A|-------------------|
E|--3-3-3-3-3-3------|

-------------------------------------------------------------------------------
Break (haven't figured it out yet)
-------------------------------------------------------------------------------
After the break go back to the Pre-Verse and then the Verse for the rest of the song.
-------------------------------------------------------------------------------
Thanks :)
            

comments powered by Disqus
↑ Back to top | Hadouken Tabs for Rebirth. Lyrics for acoustic guitar and electric guitar. Tablatures and chords are parodies/interpretations of the original songs. You may use it for private study, scholarship, research or language learning purposes only