» » »

Hadouken, Rebirth Bass tabs (ver.1)

Artists:  A B C D E F G H I J K L M N O P Q R S T U V W X Y Z # 

Rebirth Bass tabs (ver.1)

Hadouken Tabs
Rating:
4/5 (1 vote)
Rebirth lessons Tabs too difficult? Try these video lessons and learn fast
                --------------------------------------------------------------------------------------------------
------------------------------------HADOUKEN!-REBIRTH---------------------------------------------
--------------------------------------------------------------------------------------------------
(Not sure if I got the rhythms right but you can work it out)


Standard Tuning:
E,A,D,G
____________________________________________________________________________________________
Intro:

G|---------------------------------------------------|
D|---------------------------------------------------| X12
A|-3--3--3--3-3-3-3-------3--3--3--3-3-3-3----3/6\3--|
E|---------------------------------------------------|

G|-------------------------------| (NOTE: The 15s are what the synth plays)
D|-------------------------------|
A|-15-15---15-15-15--------------| X12
E|---------------------1--1--1---|

G|---------------------|
D|---------------------|
A|---------------------| Until it drops
E|--3-3-3-3-3\1/3------|

_______________________________________________________________________________________________
Pre-Verse:

G|------------------------------------------------------------------|
D|------------------------------------------------------------------| X2
A|-3-3-3-3-3-3-3-3-3-3-3-3-3-3-3-3----------------------------------|
E|----------------------------------3-3-3-3-3-3-3-3-3-3-3-3-3-3-3-3-|
________________________________________________________________________________________________
Verse:
G|----------------------------------------------------------------------|
D|----------------------------------------------------------------------| continue 
A|-3-3-3-3-3-3-3-3-3-3-3-3-3-3-3-3--------------------------------------| through-out most of
E|----------------------------------3-3----3-3-3-3-3----3-3----3-3-3-3-3| the song.
________________________________________________________________________________________________
After verse where it goes into the strange voice:

G|---------------|
D|---------------|
A|---------------|
E|-3-3-3-3-3-3---|
________________________________________________________________________________________________
Break:
(haven't figured out yet) but I think it is in C major but 
with a D# as well (don't know what key that is so if you know can you email it to me)
_______________________________________________________________________________________________
After the break go back to the Pre-Verse and then the Verse for the rest of the song.
_________________________________________________________________________________________________
            
Submit corrections

comments powered by Disqus
↑ Back to top | Hadouken Bass for Rebirth. Lyrics for acoustic guitar and electric guitar. Tablatures and chords are parodies/interpretations of the original songs. You may use it for private study, scholarship, research or language learning purposes only