» » »

Hadouken, Mic Check Bass tabs (ver.1)

Artists:  A B C D E F G H I J K L M N O P Q R S T U V W X Y Z # 

Mic Check Bass tabs (ver.1)

Hadouken Tabs
Rating:
0/5 (0 votes)
Mic Check lessons Tabs too difficult? Try these video lessons and learn fast
                -------------------------------------------------------------------------------
-------------------------------------------------------------------------------


Tuning: Standard

By far the easiest song i've ever tabbed took me 1 try and all right. pretty sure 

I also havent done all the rhythms right, but just play along and you'll get the jist ;)

Intro: no bass
If you want you can gradually build up on first fret on E string

Verse: (only 1's not 11's)
G|-----------------------------------|
D|-----------------------------------|
A|--------------------4-4-4-3-3-3----|
E|-1--1--1-1-1-1--1-1----------------| x4

Chorus:
G|--------------------------|
D|--------------------------|
A|------------4-4-----------|
E|-1-1-4-4444------8-8888---| x4

Verse:
G|-----------------------------------|
D|-----------------------------------|
A|--------------------4-4-4-3-3-3----|
E|-1--1--1-1-1-1--1-1----------------| x4

Break: no bass

Optional:
G|-----------------------------------|
D|-----------------------------------|
A|-----------------------------------|
E|-1~---4~---3~---0-1~--1~--4-3-4-3--|

Build up on first fret again if you want.

Verse:
G|-----------------------------------|
D|-----------------------------------|
A|--------------------4-4-4-3-3-3----|
E|-1--1--1-1-1-1--1-1----------------| x4

Chorus:
G|--------------------------|
D|--------------------------|
A|------------4-4-----------|
E|-1-1-4-4444------8-8888---| x4

Verse: (only 1's not 11's)
G|-----------------------------------|
D|-----------------------------------|
A|--------------------4-4-4-3-3-3----|
E|-1--1--1-1-1-1--1-1----------------| x4

Enjoy :)

| /  slide up
| \  slide down
| h  hammer-on
| p  pull-off
| ~  vibrato
| +  harmonic
| x  Mute note
===============================================================================
            

comments powered by Disqus
↑ Back to top | Hadouken Bass for Mic Check. Lyrics for acoustic guitar and electric guitar. Tablatures and chords are parodies/interpretations of the original songs. You may use it for private study, scholarship, research or language learning purposes only