» » »

Evil Tabs (ver.1)

Artists:  A B C D E F G H I J K L M N O P Q R S T U V W X Y Z # 

Evil Tabs (ver.1)

Hadouken
Rating:
0/5 (0 votes)

Tabs too difficult? Try these video lessons and learn fast.
                -------------------------------------------------------------------------------
                             EVIL [For The Masses (2011)] - Hadouken!
-------------------------------------------------------------------------------

Tuning: Standard ( EADGBe )
Here is the short guitar part ( ~2:25 in the song )

( Repeat as necessary )
e|----------------------------------------------------------|
B|-4--3-----------------------------4--3--------------4-4-4-|
G|----------0--1--0-----0h1p0----------------0--1--0--------|
D|-------3-----------3--------h3p0--------3-----------------|
A|----------------------------------------------------------|
E|----------------------------------------------------------|

Hammer-on & pull-off are very fast, i've needed of few minutes before getting this trick exactly.

e|-----------------------------------------------------------|
B|-----------------------------------------------------------|
G|-----------------------------------------------------------|
D|-8-x-8-xx-8-x-88-x-8-xx-8-x-8-6-x-6-xx-6-x-66-x-6-xx-6-x-6-|
A|-8-x-8-xx-8-x-88-x-8-xx-8-x-8-6-x-6-xx-6-x-66-x-6-xx-6-x-6-|
E|-6-x-6-xx-6-x-66-x-6-xx-6-x-6-4-x-4-xx-4-x-44-x-4-xx-4-x-4-|

************************************

| /   slide up
| \   slide down
| h   hammer-on
| p   pull-off
| ~   vibrato
| +   harmonic
| x   Mute note
| b   Bend
| pb  Pre-bend
| br  Bend release
| pbr Pre-bend release
| brb Bend release bend

************************************
            
Tabs too difficult? Try these video lessons and learn fast.


comments powered by Disqus
↑ Back to top | Tablatures and chords are parodies/interpretations of the original songs. You may use it for private study, scholarship, research or language learning purposes only