» » »

Haddaway, What Is Love Tabs (ver.6)

Artists:  A B C D E F G H I J K L M N O P Q R S T U V W X Y Z # 

What Is Love Tabs (ver.6)

Haddaway Tabs
 Rating:
4/5 (5 votes)
What Is Love lessons Tabs too difficult? Try these video lessons and learn fast
1
                Here is what is love... i did this tab as a bit of a joke... its my first one but i 
its pretty good... please rate

Riff at beginning with effect
E------------------|-------------------|----------------------------|
B------------------|-------------------|----------------------------|
G--15-14-15-12-x2--|--15-14-15-----x2--|--14-12-14------x4----------|
D------------------|-----------15------|-----------15---------------|
A------------------|-------------------|----------------------------|
E------------------|-------------------|----------------------------|

After that first riff it goes into this than for the rest of the song it
just switches between them
E---------------|---------------|-------------|---------------------|
B---------------|---------------|-------------|---------------------|
G---------------|---3-3-3-3-5---|-7-7-7-7-8---|-10-10-10-10-10------|
D---5-5-5-5-3---|---3-3-3-3-5---|-7-7-7-7-8---|-10-10-10-10-10------|
A---5-5-5-5-3---|---1-1-1-1-3---|-5-5-5-5-6---|-8--8--8--8--8-------|
E---3-3-3-3-1---|---------------|-------------|---------------------|

Thats it...
            
Submit corrections

comments powered by Disqus
↑ Back to top | Haddaway Tabs for What Is Love. Lyrics for acoustic guitar and electric guitar. 1 Tablatures and chords are parodies/interpretations of the original songs. You may use it for private study, scholarship, research or language learning purposes only