» » »

Haddaway, What Is Love Tabs (ver.3)

Artists:  A B C D E F G H I J K L M N O P Q R S T U V W X Y Z # 

What Is Love Tabs (ver.3)

Haddaway Tabs
 Rating:
4.6/5 (11 votes)
What Is Love lessons Tabs too difficult? Try these video lessons and learn fast
1
                Synth
 -----1-------------------|
 -3---3-------1-----------|
 -3---3---2---2-----------|
 -5-------3---3-----------|
 ---------5---------------|
 -------------------------|

 Main Riff
 -------------------------|
 -------------------------|
 -------------------------|
 ----------------00000000-|
 --------11111111---------|
 33333333-----------------|

 ------------------------|
 ------------------------|
 ------------------------|
 33333333----------------|
 ------------------------|
 ------------------------| Repeat

 Supplemental Melody
 656-656-656-656-535-535--|
 ---8---8---6---6---6---6-|
 -------------------------|
 -------------------------|
 -------------------------|
 -------------------------| Repeat
            
Submit corrections

comments powered by Disqus
↑ Back to top | Haddaway Tabs for What Is Love. Lyrics for acoustic guitar and electric guitar. 1 Tablatures and chords are parodies/interpretations of the original songs. You may use it for private study, scholarship, research or language learning purposes only