>
 >
Every Day

Every Day Guitar Tabs

Hackett Steve - Every Day chords, tabs, tablatures, lyrics

Guitar lessons | Add/correct | Request | Top 50 tabs Artists:  A B C D E F G H I J K L M N O P Q R S T U V W X Y Z 0-9

Every Day Guitar Tabs – Hackett Steve

CD, Sheet music, Poster

Do you like Every Day? Share with your friends now
ChordsTabs
Steve Hackett - Every Day


e|--------------------------|-------9---------9-10-9----|
B|------9---------9-10-9----|-10-12---10-12----------12-|
G|-9-11---9-11-----------11-|---------------------------|
D|--------------------------|---------------------------|
A|--------------------------|---------------------------|
E|--------------------------|---------------------------|

e|--------------------------|-------9---------9-10-9----|
B|------9---------9-10-9----|-10-12---10-12----------12-|
G|-9-11---9-11-----------11-|---------------------------|
D|--------------------------|---------------------------|
A|--------------------------|---------------------------|
E|--------------------------|---------------------------|

e|--------------------------|-------9---------9-10-9----|
B|------9---------9-10-9----|-10-12---10-12----------12-|
G|-9-11---9-11-----------11-|---------------------------|
D|--------------------------|---------------------------|
A|--------------------------|---------------------------|
E|--------------------------|---------------------------|

e|--------------------------|-------9---------9-10-9----|
B|------9---------9-10-9----|-10-12---10-12----------12-|
G|-9-11---9-11-----------11-|---------------------------|
D|--------------------------|---------------------------|
A|--------------------------|---------------------------|
E|--------------------------|---------------------------|


[G] Can you [D]light a fire in [C] Winter's [D]face 
[G] Or say [D]why a life has [C] gone to [D]waste 
Pleasure [A]Island was an [G]overcrowded [A]place 


e|--------------------------|-------9---------9-10-9----|
B|------9---------9-10-9----|-10-12---10-12----------12-|
G|-9-11---9-11-----------11-|---------------------------|
D|--------------------------|---------------------------|
A|--------------------------|---------------------------|
E|--------------------------|---------------------------|

e|--------------------------|-------9---------9-10-9----|
B|------9---------9-10-9----|-10-12---10-12----------12-|
G|-9-11---9-11-----------11-|---------------------------|
D|--------------------------|---------------------------|
A|--------------------------|---------------------------|
E|--------------------------|---------------------------|


[G] Cleo[D]patra's Needle [C] conquered [D]fear 
[G] One more [D]nail in your [C] coffin [D]dear 
Endless [A]torture for at [G]least two thousand [A]years 

[G]Every [D]day___[A]___
[G]Every [D]day___[A]___
[G]Every [D]day___[A]___
[G]Every [A]day


  Dm            Am            Dm            C
e|-------------|-------------|-------------|----------|
B|-------------|-------------|-------------|----------|
G|----------10-|-------------|----------10-|-9--------|
D|-12-10-12----|----------10-|-12-10-12----|---12-10--|
A|-------------|-12-10-12----|-------------|----------|
E|-------------|-------------|-------------|----------|

  Dm            Am            Dm            C          D
e|-------------|-------------|-------------|----------|----|
B|-------------|-------------|-------------|----------|----|
G|----------10-|-------------|----------10-|-12-10-9--|----|
D|-12-10-12----|----------10-|-12-10-12----|----------|-12-|
A|-------------|-12-10-12----|-------------|----------|----|
E|-------------|-------------|-------------|----------|----|


[G]Every [D]day___[A]___
[G]Every [D]day___[A]___
[G]Every [D]day___[A]___
[G]Every [A]day

[G] What's the [D]use of friendship, [c] who am [D]I 
[G] Hell bent [D]on destruction, [C] how I [D]tried 
You be[A]came a ghost to me [G]long before you [A]died 

e|--------------------------|-------9---------9-10-9----|
B|------9---------9-10-9----|-10-12---10-12----------12-|
G|-9-11---9-11-----------11-|---------------------------|
D|--------------------------|---------------------------|
A|--------------------------|---------------------------|
E|--------------------------|---------------------------|

e|--------------------------|-------9---------9-10-9----|
B|------9---------9-10-9----|-10-12---10-12----------12-|
G|-9-11---9-11-----------11-|---------------------------|
D|--------------------------|---------------------------|
A|--------------------------|---------------------------|
E|--------------------------|---------------------------|

e|--------------------------|-------9---------9-10-9----|
B|------9---------9-10-9----|-10-12---10-12----------12-|
G|-9-11---9-11-----------11-|---------------------------|
D|--------------------------|---------------------------|
A|--------------------------|---------------------------|
E|--------------------------|---------------------------|

e|--------------------------|-------9---------9-10-9----|
B|------9---------9-10-9----|-10-12---10-12----------12-|
G|-9-11---9-11-----------11-|---------------------------|
D|--------------------------|---------------------------|
A|--------------------------|---------------------------|
E|--------------------------|---------------------------|

e|--------------------------|-------9---------9-10-9----|
B|------9---------9-10-9----|-10-12---10-12----------12-|
G|-9-11---9-11-----------11-|---------------------------|
D|--------------------------|---------------------------|
A|--------------------------|---------------------------|
E|--------------------------|---------------------------|


e|-------------|-------------|-------------|------------|
B|-------16-17-|-------------|-------16-17-|-16---------|
G|-18-18-------|----------16-|-18-18-------|----18-16---|
D|-------------|-18-16-18----|-------------|------------|
A|-------------|-------------|-------------|------------|
E|-------------|-------------|-------------|------------|


e|-------------|-------------|-------------|------------|
B|-------16-17-|-------------|-------16-17-|-19-17-16---|
G|-18-18-------|----------16-|-18-18-------|------------|
D|-------------|-18-16-18----|-------------|------------|
A|-------------|-------------|-------------|------------|
E|-------------|-------------|-------------|------------|



e|-------16----|------16-18-16------|
B|-17-19----17-|-19--------------19-|
G|-------------|--------------------|
D|-------------|--------------------|
A|-------------|--------------------|
E|-------------|--------------------|

e|-------16----|------16-18-16------|
B|-17-19----17-|-19--------------19-|
G|-------------|--------------------|
D|-------------|--------------------|
A|-------------|--------------------|
E|-------------|--------------------|


e|-------16----|------16-18-16------|
B|-17-19----17-|-19--------------19-|
G|-------------|--------------------|
D|-------------|--------------------|
A|-------------|--------------------|
E|-------------|--------------------|

e|-------16----|------16-18-16------|
B|-17-19----17-|-19--------------19-|
G|-------------|--------------------|
D|-------------|--------------------|
A|-------------|--------------------|
E|-------------|--------------------|


e|-------16----|------16-18-16------|
B|-17-19----17-|-19--------------19-|
G|-------------|--------------------|
D|-------------|--------------------|
A|-------------|--------------------|
E|-------------|--------------------|

e|-------16----|------16-18-16------|
B|-17-19----17-|-19--------------19-|
G|-------------|--------------------|
D|-------------|--------------------|
A|-------------|--------------------|
E|-------------|--------------------|



e|-------------|-------------|------|-------------|
B|-17-------19-|-17-16-------|------|-16-17-19----|
G|-------------|-------16----|-18---|-------------|
D|-------------|----------18-|------|-------------|
A|-------------|-------------|------|-------------|
E|-------------|-------------|------|-------------|

e|-------------|-------------|------|
B|-17-------19-|-17-16-------|------|
G|-------------|-------16----|-18---|
D|-------------|----------18-|------|
A|-------------|-------------|------|
E|-------------|-------------|------|

e|-------------------------------------|
B|16-17-19--------------------16-17-19-|
G|----------18-16-18-16-18-16----------|
D|-------------------------------------|
A|-------------------------------------|
E|-------------------------------------|



e|-------------|-------------|-------------|------------|
B|-------16-17-|-------------|-------16-17-|-16---------|
G|-18-18-------|----------16-|-18-18-------|----18-16---|
D|-------------|-18-16-18----|-------------|------------|
A|-------------|-------------|-------------|------------|
E|-------------|-------------|-------------|------------|


e|-------------|-------------|-------------|------------|
B|-------16-17-|-------------|-------16-17-|-19-17-16---|
G|-18-18-------|----------16-|-18-18-------|------------|
D|-------------|-18-16-18----|-------------|------------|
A|-------------|-------------|-------------|------------|
E|-------------|-------------|-------------|------------|



e -------|------------------------|--------------------|
B -------|------------------------|-19---19-17-16------|
G -------|----------------16------|--------------------|
D -------|----------16-18---------|--------------------|
A -19-18-|-16-18-19---------------|--------------------|
E -------|------------------------|--------------------|


e -------|--------------------------|------------------|
B ----16-|-17-16--------------------|------------------|
G -------|-------18-16--------------|------------------|
D -------|-------------18-16--------|------------------|
A -------|--------------------19-18-|-16---16---18-----|
E -------|--------------------------|---------------19-|


e -------|------------------------|--------------------|
B -------|------------------------|--------------------|
G -------|----------------16------|-19---19-17-16------|
D -------|----------16-18---------|--------------------|
A -19-18-|-16-18-19---------------|--------------------|
E -------|------------------------|--------------------|


e|-----------------------|---------------| 
B|-----------------------|---------------|  
G|-----------------------|---------------| 
D|-18-16-----------------|-18-16---------|
A|-------19-18-16--------|---------------|
E|-----------------------|---------------|



e|-------------------------|-16-------16-16-----|
B|-17-16-----17-17-16---19-|----19-17-------19--|
G|-------18----------------|--------------------|
D|-------------------------|--------------------|
A|-------------------------|--------------------|
E|-------------------------|--------------------|

e|-------------------------|-16-------16-16-----|
B|-17-16-----17-17-16---19-|----19-17-------19--|
G|-------18----------------|--------------------|
D|-------------------------|--------------------|
A|-------------------------|--------------------|
E|-------------------------|--------------------|

e|-------------|-------------|-------------|------------|
B|-------16-17-|-------------|-------16-17-|-16---------|
G|-18-18-------|----------16-|-18-18-------|----18-16---|
D|-------------|-18-16-18----|-------------|------------|
A|-------------|-------------|-------------|------------|
E|-------------|-------------|-------------|------------|


e|-------------|-------------|-------------|------------|
B|-------16-17-|-------------|-------16-17-|-19-17-16---|
G|-18-18-------|----------16-|-18-18-------|------------|
D|-------------|-18-16-18----|-------------|------------|
A|-------------|-------------|-------------|------------|
E|-------------|-------------|-------------|------------|


[ad lib & fade]





Comments


Popular Hackett Steve tabs & chords
Cell 151 Chords
Every Day Chords
Sentimental Institution Chords
Show Chords
Toast Chords
Virgin And The Gypsy Chords
Walking Through Walls Chords
Every Day (Intro) Tabs
Horizons Tabs
Kim Tabs


Song lyrics



↑ Back to top | Tablatures and chords are parodies/interpretations of the original songs. You may use it for private study, scholarship, research or language learning purposes only
© 2014 AZChords.com Contact us | Privacy policy | DMCA | Add/correct tabs | Request tabs | Top 50 tabs