» » »

Self Reliable Bass tabs (ver.1)

Artists:  A B C D E F G H I J K L M N O P Q R S T U V W X Y Z # 

Self Reliable Bass tabs (ver.1)

H20
Rating:
0/5 (0 votes)

Hard to play? Try these video lessons and learn fast.
                			     Self Reliable - H2O

INTRO
G|------------------------------------------------------------------------|
D|------------------------------------------------------------------------| X2
A|-5>--7>--9>--10-9-7-9----5>--7>--3>-------------------------------------|
E|-------------------------------------3-5--------------------------------|

VERSE
G|------------------------------------------------------------------------|
D|------------------------------------------------------------------------|
A|--555--333--------------------------------------------------------------|
E|------------3-5---------------------------------------------------------|

CHORUS
G|------------------------------------------------------------------------|
D|------------------------------------------------------------------------|
A|--5>---2>---------------------------------------------------------------|
E|-----------3-5----------------------------------------------------------|

BRIDGE ("Introspection...")
G|------------------------------------------------------------------------|
D|------------------------------------------------------------------------|
A|--222--000--5-4-2--222--000--5-4-2--222--000--5-4-2----10-9-7-9-5-------|
E|------------------------------------------------------------------------|

ENDING
G|---------------------------------------------|    |---------------------|
D|---------------------------------------------| X3 |---------------------|
A|--5>--7>--9>--10-9-7-9-----------------------|    |--3333--5------------|
E|---------------------------------------------|    |---------------------|
            
Hard to play? Try these video lessons and learn fast. | Correct




comments powered by Disqus
↑ Back to top | Tablatures and chords are parodies/interpretations of the original songs. You may use it for private study, scholarship, research or language learning purposes only